PrimaNota.ru - самый крупный в мире бесплатный архив песенных текстов, аккордов, табулатур и нот


Misc Unsigned Bands - Shuvel - Those Who Stand In Line - таба

Регистрация Запомнить меня
Войти через:  Facebook Google Twitter Vk Yandex Mail.ru

Misc Unsigned Bands - Shuvel - Those Who Stand In Line - таба

Печатать
Просмотров: 101
Drop C Tuning (CGCFAD)

Intrro
D---------------|
A---4-4-4-4-4-4-|
F---------------|
C-1-------------|  X6
G-1-------------|
C-1-------------|

D-----------------------------|
A---4-4-4-2-2-2---------------|
F---------------2-2-2-2-2-2-2-|
C-1---------------------------|
G-1---------------------------|
C-1---------------------------|


D---------------------------------------------|
A---------------------------------------------|
F---------------------------------------------|
C-1-7-7-7-1-1-7-7-7-1-1-7-7-7-6-6-7-7-7-7-7-7-|  X3
G-1-7-7-7-1-1-7-7-7-1-1-7-7-7-6-6-7-7-7-7-7-7-|
C-1-7-7-7-1-1-7-7-7-1-1-7-7-7-6-6-7-7-7-7-7-7-|

D-----------------------|
A-----------------------|
F-----------------------|
C-1-7-7-7-1-1-7-7-7-1-1-|
G-1-7-7-7-1-1-7-7-7-1-1-|
C-1-7-7-7-1-1-7-7-7-1-1-|


Verseֳִִֵֵֵֶֶֶַַַַַָָָׁׁׂ
(Sorry can't figure outׁׁׁׁׁׁׂׂׂׂ)


Chorus
D---------------------------------------------|
A---------------------------------------------|
F---------------------------------------------|
C-1-7-7-7-1-1-7-7-7-1-1-7-7-7-6-6-7-7-7-7-7-7-|  X4
G-1-7-7-7-1-1-7-7-7-1-1-7-7-7-6-6-7-7-7-7-7-7-|
C-1-7-7-7-1-1-7-7-7-1-1-7-7-7-6-6-7-7-7-7-7-7-|



Bridge
D------------------------------------------------------------------|
A-4-4-4-4-4-4-4-4-4-4-4-4-4-4-4-4-4-4-4-4-4-4-4-4-2-2-2------------|
F------------------------------------------------------2-2-2-2-2-2-|
C------------------------------------------------------------------|  X4
G------------------------------------------------------------------|
C------------------------------------------------------------------|



Chorus
D---------------------|
A---------------------|
F---------------------|
C-1-7-7-7-1-1-7-7-1-1-|
G-1-7-7-7-1-1-7-7-1-1-|
C-1-7-7-7-1-1-7-7-1-1-|

D---------------------------------------------|
A---------------------------------------------|
F---------------------------------------------|
C-1-7-7-7-1-1-7-7-7-1-1-7-7-7-6-6-7-7-7-7-7-7-|  X8
G-1-7-7-7-1-1-7-7-7-1-1-7-7-7-6-6-7-7-7-7-7-7-|
C-1-7-7-7-1-1-7-7-7-1-1-7-7-7-6-6-7-7-7-7-7-7-|

D---------------------------------------------|
A---------------------------------------------|
F---------------------------------------------|
C-1-7-7-7-1-1-7-7-7-1-1-7-7-7-6-6-7-7-7-7-7-7-|
G-1-7-7-7-1-1-7-7-7-1-1-7-7-7-6-6-7-7-7-7-7-7-|
C-1-7-7-7-1-1-7-7-7-1-1-7-7-7-6-6-7-7-7-7-7-7-|



Outro
D----------------------------------------------------------------------------------------------------------|
A----------------------------------------------------------------------------------------------------------|
F----------------------------------------------------------------------------------------------------------|
C-1-7/-1-7/--1-7/-1-7/--1-1-7/-1-1-7/--1-7/-1-1-7/--1-1-7/-1-1-7/--1-7/-1-1-7/--1-1-7/-1-1-7/--1-7/-1-1-7/-|
G-1-7/-1-7/--1-7/-1-7/--1-1-7/-1-1-7/--1-7/-1-1-7/--1-1-7/-1-1-7/--1-7/-1-1-7/--1-1-7/-1-1-7/--1-7/-1-1-7/-|
C-1-7/-1-7/--1-7/-1-7/--1-1-7/-1-1-7/--1-7/-1-1-7/--1-1-7/-1-1-7/--1-7/-1-1-7/--1-1-7/-1-1-7/--1-7/-1-1-7/-|
Добавлено: 19.10.2015
Другие материалы по этой песне:
  • Аккорды и текст

Страница создана 19.10.2015
http://primanota.ru/misc-unsigned-bands/shuvel-those-who-stand-in-line-chords.htm
Привет, Гость.
Предлагаем пройти революционный курс по гитаре.
Подарок от PrimaNota.Ru, забирай!