PrimaNota.ru - самый крупный в мире бесплатный архив песенных текстов, аккордов, табулатур и нот


Misc Unsigned Bands - Red String Tribute - Already Over - таба, видео

Регистрация Запомнить меня
Войти через:  Facebook Google Twitter Vk Yandex Mail.ru

Misc Unsigned Bands - Red String Tribute - Already Over - таба, видео

Печатать
Просмотров: 130
Уроки эстрадного вокала в Санкт-Петербурге
-------------------------------------------------------------------------------
                      Already Over - Red String Tribute
-------------------------------------------------------------------------------
Tabbed by: StevenBeaven90
E-mail: stevenkotelnikov@Gmail.com
Feel free to email me if you have any questions about this tab or any other of my tabs.

Tuning: Standard

https://www.youtube.com/watch?v=waDw0k-_m4c
This is the link to the youtube video I used to make the tab.

[Pick-up note intro](0:00-0:02)(This is just a pick-up note before the actual song begins)
String 1
e|---------------------------------------------------------------------------|
B|---------------------------------------------------------------------------|
G|-0-------------------------------------------------------------------------|
D|---------------------------------------------------------------------------|
A|---------------------------------------------------------------------------|
E|---------------------------------------------------------------------------|

[Intro](0:02-0:46)
String 1 (x5)
e|---------------------------------------------------------------------------|
B|---------------------------------------------------------------------------|
G|-0--------1----------------0----------------1----------------3-------------|
D|---------------------------------------------------------------------------|
A|---------------------------------------------------------------------------|
E|---------------------------------------------------------------------------|

String 2 (x3)(Starts at 0:21)
e|---------------------------------------------------------------------------|
B|---------------------------------------------------------------------------|
G|---13--12--13----------------------------13--12--13----10----12------------|
D|---------------------------------------------------------------------------|
A|---------------------------------------------------------------------------|
E|---------------------------------------------------------------------------|

[Verse 1](0:46-1:04)
String 1 (x2)
e|---------------------------------------------------------------------------|
B|---------------------------------------------------------------------------|
G|-0--------1----------------0----------------1----------------3-------------|
D|---------------------------------------------------------------------------|
A|---------------------------------------------------------------------------|
E|---------------------------------------------------------------------------|

String 2
e|--13----15----16--------------------------13----15----16----15-------------|
B|--------------------16-----------------------------------------------------|
G|---------------------------------------------------------------------------|
D|---------------------------------------------------------------------------|
A|---------------------------------------------------------------------------|
E|---------------------------------------------------------------------------|

e|--13----15----16--------------------------13----15----16----20----18--16--18|
B|--------------------16------------------------------------------------------|
G|----------------------------------------------------------------------------|
D|----------------------------------------------------------------------------|
A|----------------------------------------------------------------------------|
E|----------------------------------------------------------------------------|

[Pre-chorus I](1:04-1:11)
String 2
e|-----------------------------------------------------------13----15--------|
B|-13--------11--------14--------13------------------13--13------------------|
G|---------------------------------------------------------------------------|
D|---------------------------------------------------------------------------|
A|---------------------------------------------------------------------------|
E|---------------------------------------------------------------------------|

[Chorus I](1:11-1:32)
String 2
e|-----------13--16--16--------16--16-16--15--15-----------------------------|
B|-----13--------------------------------------------------------------------|
G|---------------------------------------------------------------------------|
D|---------------------------------------------------------------------------|
A|---------------------------------------------------------------------------|
E|---------------------------------------------------------------------------|

e|--------------16--15--13--------------15-----------------------------------|
B|--13--13--13--------------16----13-----------------------------------------|
G|---------------------------------------------------------------------------|
D|---------------------------------------------------------------------------|
A|---------------------------------------------------------------------------|
E|---------------------------------------------------------------------------|

e|------------13--16--16--------16--16-16--15--15----------------------------|
B|-----13--13----------------------------------------------------------------|
G|---------------------------------------------------------------------------|
D|---------------------------------------------------------------------------|
A|---------------------------------------------------------------------------|
E|---------------------------------------------------------------------------|

e|--------------16--15--13---------------16--15--13--------------------------|
B|--13--13--13--------------16----13-----------------16----13----13----------|
G|---------------------------------------------------------------------------|
D|---------------------------------------------------------------------------|
A|---------------------------------------------------------------------------|
E|---------------------------------------------------------------------------|

[Verse II](1:32-1:50)(Same as Verse I for both String I and II)

[Pre-chorus II](1:50-1:56)(Same as Pre-chorus I)

[Chorus II](1:56-2:16)
String 2
e|-15------------13--16--16--------16--16-16--15--15-------------------------|
B|------13-13----------------------------------------------------------------|
G|---------------------------------------------------------------------------|
D|---------------------------------------------------------------------------|
A|---------------------------------------------------------------------------|
E|---------------------------------------------------------------------------|

e|--------------16--15--13--------------15-----------------------------------|
B|--13--13--13--------------16----13-----------------------------------------|
G|---------------------------------------------------------------------------|
D|---------------------------------------------------------------------------|
A|---------------------------------------------------------------------------|
E|---------------------------------------------------------------------------|

e|------------13--16--16--------16--16-16--15--15----------------------------|
B|-----13--13----------------------------------------------------------------|
G|---------------------------------------------------------------------------|
D|---------------------------------------------------------------------------|
A|---------------------------------------------------------------------------|
E|---------------------------------------------------------------------------|

e|--------------16--15--13---------------16--15--13--18----15----15----------|
B|--13--13--13--------------16----13-----------------------------------------|
G|---------------------------------------------------------------------------|
D|---------------------------------------------------------------------------|
A|---------------------------------------------------------------------------|
E|---------------------------------------------------------------------------|

[Bridge Pt.1](2:16-2:38)
String 2
e|------13------16----15------------------16------------------15-------------|
B|------------------------------------13------------13------------------13---|
G|---------------------------------------------------------------------------|
D|---------------------------------------------------------------------------|
A|---------------------------------------------------------------------------|
E|---------------------------------------------------------------------------|

e|-13----------------16--15--13----------------16------------------15--------16|
B|-------------------------------16----13----------------13--------------------|
G|-----------------------------------------------------------------------------|
D|-----------------------------------------------------------------------------|
A|-----------------------------------------------------------------------------|
E|-----------------------------------------------------------------------------|

e|-15--13----------------16--15--13------------------------------------------|
B|-------------------13--------------16----13--11----13----------------------|
G|---------------------------------------------------------------------------|
D|---------------------------------------------------------------------------|
A|---------------------------------------------------------------------------|
E|---------------------------------------------------------------------------|

[Bridge Pt.2](2:45-3:04)
String 2
e|-------------13-15--16------------------------16--16-16--18--15------------|
B|--13-13--13--------------------------------13------------------------------|
G|---------------------------------------------------------------------------|
D|---------------------------------------------------------------------------|
A|---------------------------------------------------------------------------|
E|---------------------------------------------------------------------------|

e|------16--15--13----------------16--15--13--18----15----15-----------------|
B|--13--------------16----13-------------------------------------------------|
G|---------------------------------------------------------------------------|
D|---------------------------------------------------------------------------|
A|---------------------------------------------------------------------------|
E|---------------------------------------------------------------------------|

e|-----------------16--------------18----15----------------------------------|
B|---------------------------------------------------------------------------|
G|---------------------------------------------------------------------------|
D|---------------------------------------------------------------------------|
A|---------------------------------------------------------------------------|
E|---------------------------------------------------------------------------|

[Pre-chorus III](3:04-3:06)
String 2
e|-----------------------------------------------------------13----15--------|
B|---------------------------------------------------13--13------------------|
G|---------------------------------------------------------------------------|
D|---------------------------------------------------------------------------|
A|---------------------------------------------------------------------------|
E|---------------------------------------------------------------------------|

[Chorus III](3:06-3:45)
String 2
e|-----------13--16--16--------16--16-16--15--15-----------------------------|
B|-----13--------------------------------------------------------------------|
G|---------------------------------------------------------------------------|
D|---------------------------------------------------------------------------|
A|---------------------------------------------------------------------------|
E|---------------------------------------------------------------------------|

e|--------------16--15--13--------------15-----------------------------------|
B|--13--13--13--------------16----13-----------------------------------------|
G|---------------------------------------------------------------------------|
D|---------------------------------------------------------------------------|
A|---------------------------------------------------------------------------|
E|---------------------------------------------------------------------------|

e|------------13--16--16--------16--16-16--15--15----------------------------|
B|-----13--13----------------------------------------------------------------|
G|---------------------------------------------------------------------------|
D|---------------------------------------------------------------------------|
A|---------------------------------------------------------------------------|
E|---------------------------------------------------------------------------|

e|--------------16--15--13---------------16--15--13--------------15----------|
B|--13--13--13--------------16----13-----------------16----13----------------|
G|---------------------------------------------------------------------------|
D|---------------------------------------------------------------------------|
A|---------------------------------------------------------------------------|
E|---------------------------------------------------------------------------|

e|-----------------16--------------18----15----------------------------------|
B|---------------------------------------------------------------------------|
G|---------------------------------------------------------------------------|
D|---------------------------------------------------------------------------|
A|---------------------------------------------------------------------------|
E|---------------------------------------------------------------------------|

e|------16--15--13--------------15-------------------------------------------|
B|--13--------------16----13-------------------------------------------------|
G|---------------------------------------------------------------------------|
D|---------------------------------------------------------------------------|
A|---------------------------------------------------------------------------|
E|---------------------------------------------------------------------------|

e|-----------------16--------------18----15----------------------------------|
B|---------------------------------------------------------------------------|
G|---------------------------------------------------------------------------|
D|---------------------------------------------------------------------------|
A|---------------------------------------------------------------------------|
E|---------------------------------------------------------------------------|

e|--------------16--15--13---------------16--15--13--18----15----------------|
B|--13--13--13--------------16----13-----------------------------------------|
G|---------------------------------------------------------------------------|
D|---------------------------------------------------------------------------|
A|---------------------------------------------------------------------------|
E|---------------------------------------------------------------------------|

[Outroduction](3:45-4:03)
String 1
e|---------------------------------------------------------------------------|
B|---------------------------------------------------------------------------|
G|-0--------1----------------0----------------1----------------3-------------|
D|---------------------------------------------------------------------------|
A|---------------------------------------------------------------------------|
E|---------------------------------------------------------------------------|

e|---------------------------------------------------------------------------|
B|---------------------------------------------------------------------------|
G|-0--------1----------------0----------------1----------------3-------------|
D|---------------------------------------------------------------------------|
A|---------------------------------------------------------------------------|
E|---------------------------------------------------------------------------|

e|---------------------------------------------------------------------------|
B|-1-------------------------------------------------------------------------|
G|---------------------------------------------------------------------------|
D|---------------------------------------------------------------------------|
A|---------------------------------------------------------------------------|
E|---------------------------------------------------------------------------|

************************************

| /   slide up
| \   slide down
| x   Mute note

************************************
Добавлено: 11.07.2015
Другие материалы по этой песне:
  • Аккорды и текст

Страница создана 11.07.2015
http://primanota.ru/misc-unsigned-bands/red-string-tribute-already-over-chords.htm
Привет, Гость.
Предлагаем пройти революционный курс по гитаре.
Подарок от PrimaNota.Ru, забирай!