PrimaNota.ru - самый крупный в мире бесплатный архив песенных текстов, аккордов, табулатур и нот


Misc Unsigned Bands - One Year Later - Twisted Tongues - таба, видео

Регистрация Запомнить меня
Войти через:  Facebook Google Twitter Vk Yandex Mail.ru

Misc Unsigned Bands - One Year Later - Twisted Tongues - таба, видео

Печатать
Просмотров: 154
Уроки эстрадного вокала в Санкт-Петербурге
One Year Later - Twisted Tongues


Tabbed by ADVER


Drop A


Intro
B--|----------------------------|
F#-|----------------------------|
D--|----------------------------|
A--|----------------------------|
E--|----0-0-0-00-00-0-0-0-0-000-|
A--|-2b-1-1-1-11-11-1-1-1-1-111-|
        x x x xx xx x x x x xxx


Verse
B--|-------------------------------------------------------|
F#-|-------------------------------------------------------|
D--|-------------------------------------------------------|
A--|-----------0000-----0000---000-------0000-----000---00-|
E--|-----------0000-----0000---000-------0000-----000---00-|
A--|-0-0-0-0-0-0000-0-0-0000-0-000-0-0-0-0000-0-0-000-0-00-|
               xxxx     xxxx   xxx       xxxx     xxx   xx


Verse cont.
B--|------------------------------------------------------|
F#-|------------------------------------------------------|
D--|------------------------------------------------------|
A--|-----------0000-----0000---000-------0000-----0000000-|
E--|-----------0000-----0000---000-------0000-----0000000-|
A--|-0-0-0-0-0-0000-0-0-0000-0-000-0-0-0-0000-0-0-1111111-|
               xxxx     xxxx   xxx       xxxx     xxxxxxx


Verse Part 2
B--|---------------------------|
F#-|---------------------------|
D--|---------------------------|
A--|-00-----000000-00-0-000-00-|
E--|-00-----000000-00-0-000-00-|
A--|-00-0-0-000000-00-0-000-00-|
     xx     xxxxxx xx x xxx xx


Verse Part 2 cont.
B--|----------------------|
F#-|----------------------|
D--|----------------------|
A--|-00-----000000-000000-|
E--|-00-----000000-000000-|
A--|-00-0-0-000000-111111-|
     xx     xxxxxx xxxxxx


Chorus
B--|----------------------------------------------------------------|
F#-|----------------------------------------------------------------|
D--|----------------------------------------------------------------|
A--|----------------------------------------------------------------|
E--|----------------------------------------------------------------|
A--|-1212-1212-12-0-1212-1212-12-0--05-07-88-88-8-8-1010-1010-10-10-|
        x    x         x    x       x  x   x  x        x    x  


Chorus cont.
B--|----------------------------------------------------------------|
F#-|----------------------------------------------------------------|
D--|----------------------------------------------------------------|
A--|----------------------------------------------------------------|
E--|----------------------------------------------------------------|
A--|-1212-1212-12-0-1212-1212-12-0--05-07-88-88-8-8-55-55-5-77-77-7-|
        x    x         x    x       x  x   x  x      x  x    x  x


00:56
B--|------------------|
F#-|------------------|
D--|------------------|
A--|-00-0---00000-000-|
E--|-00-0---00000-000-|
A--|-00-0-0-00000-111-|
     xx x   xxxxx xxx


Verse
B--|-------------------------------------------------------|
F#-|-------------------------------------------------------|
D--|-------------------------------------------------------|
A--|-----------0000-----0000---000-------0000-----000---00-|
E--|-----------0000-----0000---000-------0000-----000---00-|
A--|-0-0-0-0-0-0000-0-0-0000-0-000-0-0-0-0000-0-0-000-0-00-|
               xxxx     xxxx   xxx       xxxx     xxx   xx


Verse cont.
B--|-------------------------------------------------------|
F#-|-------------------------------------------------------|
D--|-------------------------------------------------------|
A--|-----------0000-----0000---000-------0000-----000---00-|
E--|-----------0000-----0000---000-------0000-----000---00-|
A--|-0-0-0-0-0-0000-0-0-0000-0-000-0-0-0-0000-0-0-000-0-00-|
               xxxx     xxxx   xxx       xxxx     xxx   xx


Chorus
B--|----------------------------------------------------------------|
F#-|----------------------------------------------------------------|
D--|----------------------------------------------------------------|
A--|----------------------------------------------------------------|
E--|----------------------------------------------------------------|
A--|-1212-1212-12-0-1212-1212-12-0--05-07-88-88-8-8-1010-1010-10-10-|
        x    x         x    x       x  x   x  x        x    x  
           
                                                                    (x2)
Chorus cont.
B--|----------------------------------------------------------------|
F#-|----------------------------------------------------------------|
D--|----------------------------------------------------------------|
A--|----------------------------------------------------------------|
E--|----------------------------------------------------------------|
A--|-1212-1212-12-0-1212-1212-12-0--05-07-88-88-8-8-55-55-5-77-77-7-|
        x    x         x    x       x  x   x  x      x  x    x  x


Breakdown
B--|--------------------------------------------------------------|
F#-|--------------------------------------------------------------|
D--|--------------------------------------------------------------|
A--|----00---0-------0---0---0000-----0---0----------0---0--------| (x2)
E--|----00---0-------0---0---0000-----0---0-------3--0---0----3---|
A--|-4b-00-0-0-0--4b-0-0-0-0-0000--4b-0-0-0-0-0~-5-0-0-0-0-0-5-0~-|
        xx   x       x   x   xxxx     x   x          x   x


Breakdown Part 2
B--|----------------------------------------------------------------------------|
F#-|----------------------------------------------------------------------------|
D--|----------------------------------------------------------------------------|
A--|-000000-----0000000000-00--------0---0---0---00--0-0-0-00---0---0---0---0---|
E--|-000000-----0000000000-00--------0---0---0---00--0-0-0-00---0---0---0---0---|
A--|-000000-0-0-0000000000-00-0-0--0-0-0-0-0-0-0-00--0-0-0-00-0-0-0-0-0-0-0-0-0-|
     xxxxxx     xxxxxxxxxx xx        x   x   x   xx  x x x xx   x   x   x   x


Chorus Altered
B--|---------------------------------------------------------------------------------|
F#-|---------------------------------------------------------------------------------|
D--|-7777777777777777----------------------------7777777777777777--------------------|
A--|-7777777777777777-88888888-1010101010101010--7777777777777777-88888888-----------|
E--|-5555555555555555-88888888-1010101010101010--5555555555555555-88888888-----------|
A--|------------------88888888-1010101010101010-------------------88888888-5555-7777-|


Chorus Outro
B--|----------------------------------------------------------------|
F#-|----------------------------------------------------------------|
D--|----------------------------------------------------------------|
A--|----------------------------------------------------------------|
E--|----------------------------------------------------------------|
A--|-1212-1212-12-0-1212-1212-12-0--05-07-88-88-8-8-1010-1010-10-10-|
        x    x         x    x       x  x   x  x        x    x  


Chorus Outro cont.
B--|----------------------------------------------------------------|
F#-|----------------------------------------------------------------|
D--|----------------------------------------------------------------|
A--|----------------------------------------------------------------|
E--|----------------------------------------------------------------|
A--|-1212-1212-12-0-1212-1212-12-0--05-07-88-88-8-8-55-55-5-77-77-7-|
        x    x         x    x       x  x   x  x      x  x    x  x

Добавлено: 11.07.2015
Другие материалы по этой песне:
  • Аккорды и текст

Страница создана 11.07.2015
http://primanota.ru/misc-unsigned-bands/one-year-later-twisted-tongues-chords.htm
Привет, Гость.
Предлагаем пройти революционный курс по гитаре.
Подарок от PrimaNota.Ru, забирай!