PrimaNota.ru - самый крупный в мире бесплатный архив песенных текстов, аккордов, табулатур и нот


Misc Unsigned Bands - Placetaker - Palindromesque - таба

Регистрация Запомнить меня
Войти через:  Facebook Google Twitter Vk Yandex Mail.ru

Misc Unsigned Bands - Placetaker - Palindromesque - таба

Печатать
Просмотров: 46
(Intro) (12/8 time)
e|--0--0-0-x--0--0-------------------------------------------------|
B|--8--8-8-x--0--0--<12>-------------------------------------------|
G|--9--9-9-x--9--9--<12>--4--4-4-4--11--11-11-11-------------------|
D|--9--9-9-x--9--9--------5--5-5-5--12--12-12-12-------------------|
A|--7--7-0-x--7--7--------5--5-5-5--12--12-10-10-------------------|
E|--0--0-0-7--8--8--------3--3-3-3/-10--10-10-10-------------------|

e|--0--0-0-x--0--0-------------------x--x-x-x----------------------|
B|--8--8-8-x--0--0--<12>-------------3--3-3-3----------------------|
G|--9--9-9-x--9--9--<12>--4--4-4-4-x-2--2-2-2----------------------| (x3) (piano enters after 1x)
D|--9--9-9-x--9--9--------5--5-5-5-x-0--0-0-0----------------------|
A|--7--7-0-x--7--7--------5--5-5-5-0-0--0-0-0----------------------|
E|--0--0-0-7--8--8--------3--3-3-3-0-2--2-2-2----------------------|

(Riff 1) (12/8 time)
e|-----------------------------------------------------------------|
B|-----------------------------------------------------------------|
G|-------------------------------0---------------------------------| (x4)
D|-----------------0-9--9h10h9-------------------------------------|
A|--5--7/9-10\9------10--------9---9-7-----------------------------|
E|-----------------------------10----8-----------------------------|
                                     Let Ring...

(Riff 2) (7/8 time)
e|-----------------------------------------------------------------|
B|------8---------------------------8------------------------------|
G|------9-----0-----0---------------9-----0-----0------------------| (x2)
D|----9-----0-----0---------------9-----0-----0--------------------|
A|--7-----0-----7-----7-5/7-7h9h7-----0-----7-----7-5h7h5----------|
E|----------7---8-----------------------7---8-------------7-5-(0)--|
                                                                In place of 7th fret A at beginning of riff 
                                                                (for repeat).
                                                                However second time through, instead of
                                                                playing this note, go right to the A minor
                                                                chord at the beginning of Riff 3.

(Riff 3) (12/8 time)
e|--0--0---0---x----2--2---2----------x---5--5h0-------------------|
B|--1--1---1---x----1--1h0-0----------x---0--0---------------------|
G|--2--0h2-2h0-x----2--2h0-0----------x---0--0---------------------| (x4)
D|--2--2---2---x--0----0---2--2---0h2-x---0--0---------------------|
A|--0--0---0---x-----------2--0h2-2---x---2--2---------------------|
E|-------------------------0--0-------x-3----3---------------------|

Structure:

Intro
Riff 1
Riff 2
Riff 3
Riff 2
Riff 1
Intro

Key:

|  /  Slide up
|  \  Slide down
|  h  Hammer-on
|  <> Harmonic
Добавлено: 11.07.2015
Другие материалы по этой песне:
  • Аккорды и текст

Страница создана 11.07.2015
http://primanota.ru/misc-unsigned-bands/placetaker-palindromesque-chords.htm
Привет, Гость.
Предлагаем пройти революционный курс по гитаре.
Подарок от PrimaNota.Ru, забирай!