PrimaNota.ru - самый крупный в мире бесплатный архив песенных текстов, аккордов, табулатур и нот


Misc Unsigned Bands - Olof Arnalds - Sudden Elevation Live - таба

Регистрация Запомнить меня
Войти через:  Facebook Google Twitter Vk Yandex Mail.ru

Misc Unsigned Bands - Olof Arnalds - Sudden Elevation Live - таба

Печатать
Просмотров: 99
-------------------------------------------------------------------------------
                             Olof Arnalds - Sudden Elevation Live

As best I can work it out. If you can improve it tell me.

-------------------------------------------------------------------------------
Tabbed by: Complexcat
E-mail: complexcat@gmail.com

Tuning: Standard

e|-5-------------------------------------------------------------------------|
B|-----0---------------------------------------------------------------------|
G|---6---6---6-----6----6----------------------------------------------------|
D|-7-------7----7-----7------------------------------------------------------|
A|---------------------------------------------------------------------------|
E|---------------------------------------------------------------------------|

e|---------------------------------------------------------------------------|
B|-3-------------------------------------------------------------------------|
G|-------0-------------------------------------------------------------------|
D|----4----4----4------4-------4---------------------------------------------|
A|-5---------5------5------5-------------------------------------------------|
E|---------------------------------------------------------------------------|

e|---------------------------------------------------------------------------|
B|-1-------------------------------------------------------------------------|
G|--------0------------------------------------------------------------------|
D|----2-----2----2-------2-------2-------------------------------------------|
A|-3----------3------3-------3-----------------------------------------------|
E|---------------------------------------------------------------------------|

e|---------------------------------------------------------------------------|
B|-8-------------------------------------------------------------------------|
G|--------0------------------------------------------------------------------|
D|----9-----9---9------9-------9---------------------------------------------|
A|-7----------7-----7------7-------------------------------------------------|
E|---------------------------------------------------------------------------|

e|---------------------------------------------------------------------------|
B|-3-------------------------------------------------------------------------|
G|------0--------------------------------------------------------------------|
D|----3---3---3-----3-----3--------------------------------------------------|
A|-1--------1-----1-----1----------------------------------------------------|
E|---------------------------------------------------------------------------|

e|---------------------------------------------------------------------------|
B|-7-------------------------------------------------------------------------|
G|------0--------------------------------------------------------------------|
D|---7----7---7-----7-------7------------------------------------------------|
A|-5--------5-----5------5---------------------------------------------------|
E|---------------------------------------------------------------------------|

Then back to beginning.

************************************

| /   slide up
| \   slide down
| h   hammer-on
| p   pull-off
| ~   vibrato
| +   harmonic
| x   Mute note
| b   Bend
| pb  Pre-bend
| br  Bend release
| pbr Pre-bend release
| brb Bend release bend

************************************
Добавлено: 22.06.2015
Другие материалы по этой песне:
  • Аккорды и текст

Страница создана 22.06.2015
http://primanota.ru/misc-unsigned-bands/olof-arnalds-sudden-elevation-live-chords.htm
Привет, Гость.
Предлагаем пройти революционный курс по гитаре.
Подарок от PrimaNota.Ru, забирай!