PrimaNota.ru - самый крупный в мире бесплатный архив песенных текстов, аккордов, табулатур и нот


Misc Unsigned Bands - Rachel Thompson - Please Dont Say You Love Me - таба

Регистрация Запомнить меня
Войти через:  Facebook Google Twitter Vk Yandex Mail.ru

Misc Unsigned Bands - Rachel Thompson - Please Dont Say You Love Me - таба

Печатать
Просмотров: 82
Rachael Thompson - Please Don't Say You Love Me -  
Capo 5

Verse:
e-------------------|------------------|-----------------|---------------|
B-----8-----8-------|---7-----7--------|----5-----5------|----3-----3----|
G-----0-----0-------|---0-----0--------|----0-----0------|----0-----0----|
D-------------------|------------------|-----------------|---------------|
A--------7-----7----|------5-----5-----|-------3-----3---|-------3-----3-|
E-------------------|------------------|-----------------|---------------|

Chorus:
e----------------------|----------------------|----------------------|---------------------|
B---------5--------5---|---------3--------3---|---------7--------7---|---------8--------7--|
G------0--------0------|------0--------0------|------0--------0------|------0--------0-----|
D----------------------|----------------------|----------------------|---------------------|
A---3--------3---------|----------------------|---5--------5---------|---7--------5--------|
E----------------------|---3--------3---------|----------------------|---------------------|

Bridge:
e----------------------|----------------------|----------------------|---------------------|
B---------5--------5---|---------5--------5---|---------8--------8---|---------8--------8--|
G------0--------0------|------0--------0------|------0--------0------|------0--------0-----|
D----------------------|----------------------|----------------------|---------------------|
A---3--------3---------|---3--------3---------|---7--------7---------|---7--------7--------|
E----------------------|----------------------|----------------------|---------------------|


e----------------------|----------------------|----------------------|---------------------|
B---------3--------3---|---------3--------3---|---------0--------0---|---------0--------0--|
G------0--------0------|------0--------0------|------1--------1------|------1--------1-----|
D----------------------|----------------------|----------------------|---------------------|
A----------------------|----------------------|----------------------|---------------------|
E---3--------3---------|---2--------2---------|---0--------0---------|---0--------0--------|

e----------------------|----------------------|----------------------|---------------------|
B---------1--------1---|---------1--------1---|---------1--------1---|---------7--------7--|
G------0--------0------|------0--------0------|------0--------0------|------0--------0-----|
D----------------------|----------------------|----------------------|---------------------|
A---0--------0---------|---0--------2---------|---3--------3---------|---5--------5--------|
E----------------------|----------------------|----------------------|---------------------|

https://www.youtube.com/watch?v=4KXV_a5XOls
Добавлено: 11.07.2015
Другие материалы по этой песне:
  • Аккорды и текст

Страница создана 11.07.2015
http://primanota.ru/misc-unsigned-bands/rachel-thompson-please-dont-say-you-love-me-chords.htm
Привет, Гость.
Предлагаем пройти революционный курс по гитаре.
Подарок от PrimaNota.Ru, забирай!