PrimaNota.ru - самый крупный в мире бесплатный архив песенных текстов, аккордов, табулатур и нот


Misc Unsigned Bands - O Brad Frumos - Christmas Romanian Folk Song - таба

Регистрация Запомнить меня
Войти через:  Facebook Google Twitter Vk Yandex Mail.ru

Misc Unsigned Bands - O Brad Frumos - Christmas Romanian Folk Song - таба

Печатать
Просмотров: 77
-------------------------------------------------------------------------------
                             O, brad frumos - Christmas Romanian folk song
-------------------------------------------------------------------------------
Tabbed by:Andrei260902
E-mail:al.trandafir@yahoo.com

Tuning: e B G D A E

e|-----------------0-0-0----0---0--1-------------|
B|-----1-1-1----3-------------3-------0--3-1-----|
G|---0-------------0-0-0----0---0--2-------------|
D|-----2-2-2----3-------------3-------0--3-2-----| X 2
A|-----------------------------------------------|
E|-----------------------------------------------|

e|-----3-3-0--5--3-3-1-1---1-1---3-1-1---------|
B|------------6--5-5-3-3-------3-5-3-3--1- 0---|
G|---------------------------------------------| X 1
D|---------------------------------------------|
A|---------------------------------------------|
E|---------------------------------------------|
 

e|-----------------0-0-0----0---0--1-------------|
B|-----1-1-1----3-------------3-------0--3-1-----|
G|---0-------------0-0-0----0---0--2-------------| X 1
D|-----2-2-2----3-------------3-------0--3-2-----|
A|-----------------------------------------------|
E|-----------------------------------------------|


************************************

| /   slide up
| \   slide down
| h   hammer-on
| p   pull-off
| ~   vibrato
| +   harmonic
| x   Mute note
| b   Bend
| pb  Pre-bend
| br  Bend release
| pbr Pre-bend release
| brb Bend release bend

************************************
Добавлено: 11.07.2015
Другие материалы по этой песне:
  • Аккорды и текст

Страница создана 11.07.2015
http://primanota.ru/misc-unsigned-bands/o-brad-frumos-christmas-romanian-folk-song-chords.htm
Привет, Гость.
Предлагаем пройти революционный курс по гитаре.
Подарок от PrimaNota.Ru, забирай!