PrimaNota.ru - самый крупный в мире бесплатный архив песенных текстов, аккордов, табулатур и нот


Misc Unsigned Bands - Phantomkode - Happy Tree Friends Rock - таба

Регистрация Запомнить меня
Войти через:  Facebook Google Twitter Vk Yandex Mail.ru

Misc Unsigned Bands - Phantomkode - Happy Tree Friends Rock - таба

Печатать
Просмотров: 38
Hey.  This is PhantomKode, the creator of the rock version of the Happy Tree Friends
 I hope you'll figure out that this is VERY, VERY easy to play.  This is my very first song
ever composed and it sounds like a first, too.  It's just a simple song with a bunch of 
fills thrown in.

     The beginging is all transcribed from the original HTF theme.  The last part is all
improvisation.  In fact, I totaly made that part up as I was recording the video!
me.  If you know you're pentatonics scales, you're just fine.  Special dedication to 
who wanted the tab.  Also special thanks to MondoMedia for making Happy Tree Friends!
was as close to the recording as I could get.   Good luck!


~  = vibrato
\  = slide
() = full bend
HB = Half bend
h  = hammer on
p  = pull off
=  = let ring out
PM = palm mute

e|-12-12-9-9-9-12-12/15---|  (Repeat this three times.)
B|------------------------|
G|------------------------|
D|------------------------|
A|------------------------|
E|------------------------|

e|-12-12-9-9-9-12-12/15-14-|-12--12--12-12-10--9~~|-12--12--12-12-10--9~~|
B|-------------------------|----------------------|----------------------|
G|-------------------------|----------------------|----------------------|
D|-------------------------|----------------------|----------------------|
A|-------------------------|----------------------|----------------------|
E|-------------------------|----------------------|----------------------|

e|-10--10--10-10-9-7-|-10--10--10-10-9-7-|
B|-------------------|-------------------|
G|-------------------|-------------------|
D|-------------------|-------------------|
A|-------------------|-------------------|
E|-------------------|-------------------|

e|-12-12-9-9-9-12-12/15--(15)--(15)--(15)-(15)~~~~|
B|------------------------------------------------|
G|------------------------------------------------|
D|------------------------------------------------|
A|------------------------------------------------|
E|------------------------------------------------|

e|-12-15p12----12~~~---12----------------------------------------|
B|----------15------15----15-12h15p12----------------------------|
G|------------------------------------(14)--14-12-14p12----12~~~~|
D|------------------------------------------------------14-------|
A|---------------------------------------------------------------|
E|---------------------------------------------------------------|

e|-----------------------|        |-----------------------|
B|-----------------------|        |-----------------------|
G|-9---9---9--9--7--6----|        |-7---7---7--7--5--4----|
D|-9---9---9--9--7--6----|  (X2)  |-7---7---7--7--5--4----|  (X2)
A|-7---7---7--7--5--4----|        |-5---5---5--5--3--2----|
E|-----------------------|        |-----------------------|

Here's where the real improvising comes in.  This is where you sould throw in your own
like I did, but this is how I played it in the video.

Basicly just messing up the Pentatonics on the 5th fret.

e|----------------------------------|
B|----------------------------------|
G|----------------------------------|
D|----------------------------5-7~~~|
A|---------------------5h6h7--------|
E|-5-8-5-8-5-8-5-8-5-8--------------|

e|-----------------------------------------|
B|-----------------------------------------|
G|-----------------------------------------|
D|-HB7-7-5h7p5---5~~~--5-------------------|
A|-------------7-----7---7-6-5---5---------|
E|-----------------------------8---8--5~~~~|

e|-5h8p5---5~~~5h8p5---5~~~|--5h8p5----5h8p5---5h8p5---5h8p5-----|
B|-------8-----------8-----|-8-------8-------8-------8-------8---|
G|-------------------------|-------------------------------------|
D|-------------------------|-------------------------------------|
A|-------------------------|-------------------------------------|
E|-------------------------|-------------------------------------|

Now work your way down.

e|-(8)--8~5h8p5---5~~--5----------------------------------------------|
B|--------------8----8---8-5h8p5--------------------------------------|
G|-------------------------------(7)--7-5h7p5---5~~~--5---------------|
D|--------------------------------------------7-----7---7-5h7p5---5~~~|
A|--------------------------------------------------------------7-----|
E|--------------------------------------------------------------------|

e|----------------------|---------0-------------0--0--|
B|----------------------|---------0-------------0--0--|
G|----------------------|---------0-------------0--0--|
D|----------------------|-7=======7=======7--7--0--0--|
A|-7--6--5---5----------|-7=======7=======7--7--7--7--|
E|---------8---8p0====--|-5=======5=======5--5--5--5--|
                                          (PM)

Have fun!  I hope you post a version better than mine!  Show me what you got!
Добавлено: 30.08.2013
Другие материалы по этой песне:
  • Аккорды и текст

Страница создана 30.08.2013
http://primanota.ru/misc-unsigned-bands/phantomkode-happy-tree-friends-rock-chords.htm
Привет, Гость.
Предлагаем пройти революционный курс по гитаре.
Подарок от PrimaNota.Ru, забирай!