PrimaNota.ru - самый крупный в мире бесплатный архив песенных текстов, аккордов, табулатур и нот


Misc Unsigned Bands - Phthisis - Delirium Tremens - таба

Регистрация Запомнить меня
Войти через:  Facebook Google Twitter Vk Yandex Mail.ru

Misc Unsigned Bands - Phthisis - Delirium Tremens - таба

Печатать
Просмотров: 33
Tuning:C#

e|------------------------------------------------------|
B|------------------------------------------------------|
G|------------------------------------------------------|
D|---5---5---5---8---8---8---7---7---7---10---10---10---|
A|-9---9---9---------------6---6---6---9----9----9------|
E|-------------5---5---5--------------------------------|



Gtr1
e|----------------------------0--------------------------|
B|-------6-----------6--------6--------------------------|
G|-----3---3-------3---3------3--------------------------|
D|---4-------4---4-------4----4--------------------------|
A|-5-----------5--------------5--------------------------|
E|-------------------------------------------------------|

Gtr2
e|-------------------------------------------------------|
B|-------------------------------------------------------|
G|-------------------------------------------------------|
Dl/4----------8-7------------/11^^^^^--------------------|
A|------5-4----------8-7---------------------------------|
E|-------------------------------------------------------|

Gtr1
e|--------------------------------------------15------------15--------|
B|----------------------------------------11-----1415-1011-----1415-11|
G|------------------------------------------12------------12----------|
D|--------------65-5-------0-0-0-0--0--0------------------------------|
A|-0-0-0-0---467--7-6746---6-6-6-6--6--6------------------------------|
E|-4-4-4-4467-----------4---------------------------------------------|

Gtr2
e|--------------------------------------------10------------10----------|
B|----------------------------------------7------9-10-6-7------9-10-6---|
G|-------------------------------9--8--4----8-------------8-------------|
D|-------------------------0-0-0/---------------------------------------|
A|-0--0--0--0--0--0--0--0--6-6-6-7--6--2--------------------------------|
E|-4--4--4--4--4--4--4--4-----------------------------------------------|

Gtr1
e|------------------------------------------------------15---------15--------|
B|---------------------------------------------------11---1415-1011--141511--|
G|-----------------------------------------------------12---------12---------|
D|--------141311- 1311------------------0-0-0-0--0--0------------------------|
A|-0-0-0-0------14---14131113111011107--6-6-6-6--6--6------------------------|
E|-4-4-4-4-------------------------------------------------------------------|


Gtr2
e|------------------------------------------------------10---------10--------|
B|---------------------------------------------------7----9-10-6-7---9-10-6--|
G|--------------------------------------------13-12-9-8-----------8----------|
D|--------------------------------------0-0-0/-------------------------------|
A|-0--0--0----0------0----0----0----0---6-6-6-11-10-7------------------------|
E|-4--4--4----4------4----4----4----4----------------------------------------|

Gtr 1&2
e|-5-------------8-------------------|
B|-4-------------10------------------|
G|-5-------------9-------------------|
D|-----------------------------------|
A|-----------------------------------|
E|-----------------------------------|

Gtr 1&2                                                          2xs
e|------------------------------------------------------------------|
B|--------------1112-1112-1112-1112---------------------------------|
G|-9--9--10--10-1011-1011-1011-1011--9--9--10--10------4----6----7--|
D|-----------------------------------------------------5----7----8--|
A|-8--8--9---9--9-10-9-10-9-10-9-10--8--8--9---9-------3----5----6--|
E|-----------------------------------------------4444444-6666-7777--|

Gtr1
e|------------------------------------------------------------------|
B|--------------1112-1112-1112-1112---------------------------------|
G|-9--9--10--10-1011-1011-1011-1011--9--9--10--10------4----6----7--|
D|-----------------------------------------------------5----7----8--|
A|-8--8--9---9--9-10-9-10-9-10-9-10--8--8--9---9-------3----5----6--|
E|-----------------------------------------------4444444-6666-7777--|

Gtr2
e|------------------------------------------------------------------|
B|--------------1314-1314-1314-1314---------------------------------|
G|-12-12-13--13-1213-1213-1213-1213--12-12-13-13-------4----6----7--|
D|-----------------------------------------------------5----7----8--|
A|-11-11-12--12-1112-1112-1112-1112--11-11-12-12-------3----5----6--|
E|-----------------------------------------------4444444-6666-7777--|
Добавлено: 20.10.2013
Другие материалы по этой песне:
  • Аккорды и текст

Страница создана 20.10.2013
http://primanota.ru/misc-unsigned-bands/phthisis-delirium-tremens-chords.htm
Привет, Гость.
Предлагаем пройти революционный курс по гитаре.
Подарок от PrimaNota.Ru, забирай!