PrimaNota.ru - самый крупный в мире бесплатный архив песенных текстов, аккордов, табулатур и нот


Misc Unsigned Bands - Picture Me Broken - Dearest - таба, видео

Регистрация Запомнить меня
Войти через:  Facebook Google Twitter Vk Yandex Mail.ru

Misc Unsigned Bands - Picture Me Broken - Dearest - таба, видео

Печатать
Просмотров: 54
Уроки эстрадного вокала в Санкт-Петербурге
-----------------------------------------------------------------------------
                            Dearest - Picture me Broken
-----------------------------------------------------------------------------
Tabbed by: Nick Loiacono
Email: rock4nick92@yahoo.com

Tuning: Drop D
Tempo: 119
Timing: 4/4

 p  pull-off
 .  palm-muted
 ~  vibrato
 x  non-ringing note
 x. non-ringing palm-muted note
 @  Ghost Note
 *  Pinch Harmonic [no vibrato]
 *~ Pinch Harmonic [w/vibrato]

Intro:
E|------------------------------------------------------------|
B|------------------------------------------------------------|
G|------------------------------------------------------------|
D|------------------------------------------------------------|
A|----8p0---7p0-----------------------------------------------|
D|0-0-----0-----0-10p0-8p0-7p0-8p0-0-0-8p0-0-7p0-0-5p0-3p0-2--|
  . .     .     .                @ . .     .     .         ~

E|----------------------------------------------------------------|
B|----------------------------------------------------------------|
G|----------------------------------------------------------------|
D|--------------------------------------------------------8p0-8p0-|
A|----8p0---7p0-----------------------10p0-0-8p0-0-7p0-8p0--------|
D|5-5-----0-----0-10p0-8p0-7p0-8p0-7-7----------------------------|
  . .     .     .                @ . .     .     .

E|------------------------------------------------------------|
B|------------------------------------------------------------|
G|------------------------------------------------------------|
D|------------------------------------------------------------|
A|----8p0---7p0-----------------------------------------------|
D|0-0-----0-----0-10p0-8p0-7p0-8p0-0-0-8p0-0-7p0-0-5p0-3p0-2--|
  . .     .     .                @ . .     .     .         ~

E|----------------------------------------------------------------|
B|----------------------------------------------------------------|
G|----------------------------------------------------------------|
D|--------------------------------------------------------8p0-8p0-|
A|----8p0---7p0-----------------------10p0-0-8p0-0-7p0-8p0--------|
D|5-5-----0-----0-10p0-8p0-7p0-8p0-7-7----------------------------|
  . .     .     .                @ . .     .     .

Verse:
E|-----------------------------------------------------------------|
B|-----------------------------------------------------------------|
G|-----------------------------------------------------------------|
D|0-0-------------0-0-------------7-7-------------10-10------------|
A|0-0-------------0-0-------------5-5-------------8--8-------------|
D|0-0-------------0-0-------------5-5-------------8--8-------------|
    x               x               x                x
E|-----------------------------------------------------------------|
B|-----------------------------------------------------------------|
G|-----------------------------------------------------------------|
D|0-0-----10-------0-0-----10------7-7-----10------10-10----7------|
A|0-0-8-7---7-8-7--0-0-8-7---7-8-7-5-5-8-7---7-8-7-8--8-7-8-----7--|
D|0-0--------------0-0-------------5-5-------------8--8-------0----|
    x . .   . . .    x . .   . . .   x . .   . . .    x . .   . *

Pre-chorus:
E|-------------------------------------------------------------|
B|-------------------------------------------------------------|
G|-------------------------------------------------------------|
D|-------------------------------------------------------------|
A|----8p0---7p0------------------------------------------------|
D|0-0-----0-----0-10p0-8p0-7p0-8p0-0-0-8p0-0-7p0-0-5p0-3p0-2---|
  . .     .     .                @ . .     .     .         ~

E|-------------------------------------------------------------|
B|-------------------------------------------------------------|
G|-------------------------------------------------------------|
D|-------------------------------------------------------------|
A|----8p0---7p0-----------------------10p0-0-8p0-0-7-----------|
D|5-5-----0-----0-10p0-8p0-7p0-8p0-7-7-------------------------|
  . .     .     .                @ . .     .     . x

Chorus:
E|----------------------------------------------------------------------------|
B|----------------------------------------------------------------------------|
G|----10-1010-10-1010-----10-1010-10-1010-----9--9-9--9--9-9------------------|
D|0---7--7-7--7--7-7--8---8--8-8--8--8-8------7--7-7--7--7-7---5--5-5-8---8-8-|
A|0---8--8-8--8--8-8--8---8--8-8--8--8-8--8---8--8-8--8--8-8---5--5-5-8---8-8-|
D|0---0--0-0--0--0-0--8---8--8-8--8--8-8--7---7--7-7--7--7-7---5--5-5-8---8-8-|

E|----------------------------------------------------------------------------|
B|----------------------------------------------------------------------------|
G|----10-1010-10-1010-----10-1010-10-1010-----9--9-9--9--9-9------------------|
D|0---7--7-7--7--7-7--8---8--8-8--8--8-8------7--7-7--7--7-7--5-5-5-5-8-8-8-8-|
A|0---8--8-8--8--8-8--8---8--8-8--8--8-8--8---8--8-8--8--8-8--5-5-5-5-8-8-8-8-|
D|0---0--0-0--0--0-0--8---8--8-8--8--8-8--7---7--7-7--7--7-7--5-5-5-5-8-8-8-8-|
                                                              . . . . . . . .

Intro:
E|------------------------------------------------------------|
B|------------------------------------------------------------|
G|------------------------------------------------------------|
D|------------------------------------------------------------|
A|----8p0---7p0-----------------------------------------------|
D|0-0-----0-----0-10p0-8p0-7p0-8p0-0-0-8p0-0-7p0-0-5p0-3p0-2--|
  . .     .     .                @ . .     .     .         ~

E|----------------------------------------------------------------|
B|----------------------------------------------------------------|
G|----------------------------------------------------------------|
D|--------------------------------------------------------8p0-8p0-|
A|----8p0---7p0-----------------------10p0-0-8p0-0-7p0-8p0--------|
D|5-5-----0-----0-10p0-8p0-7p0-8p0-7-7----------------------------|
  . .     .     .                @ . .     .     .

Verse:
E|-----------------------------------------------------------------|
B|-----------------------------------------------------------------|
G|-----------------------------------------------------------------|
D|0-0-------------0-0-------------7-7-------------10-10------------|
A|0-0-------------0-0-------------5-5-------------8--8-------------|
D|0-0-------------0-0-------------5-5-------------8--8-------------|
    x               x               x                x
E|----------------------------------------------------------------|
B|----------------------------------------------------------------|
G|----------------------------------------------------------------|
D|0-0-----10-------0-0-----10------7-7-----10------10-10----7-----|
A|0-0-8-7---7-8-7--0-0-8-7---7-8-7-5-5-8-7---7-8-7-8--8-7-8-----7-|
D|0-0--------------0-0-------------5-5-------------8--8-------0---|
    x . .   . . .    x . .   . . .   x . .   . . .    x . .   . *

Pre-chorus:
E|-------------------------------------------------------------|
B|-------------------------------------------------------------|
G|-------------------------------------------------------------|
D|-------------------------------------------------------------|
A|----8p0---7p0------------------------------------------------|
D|0-0-----0-----0-10p0-8p0-7p0-8p0-0-0-8p0-0-7p0-0-5p0-3p0-2---|
  . .     .     .                @ . .     .     .         ~

E|-------------------------------------------------------------|
B|-------------------------------------------------------------|
G|-------------------------------------------------------------|
D|-------------------------------------------------------------|
A|----8p0---7p0-----------------------10p0-0-8p0-0-7-----------|
D|5-5-----0-----0-10p0-8p0-7p0-8p0-7-7-------------------------|
  . .     .     .                @ . .     .     . x~~~

Chorus:
E|----------------------------------------------------------------------------|
B|----------------------------------------------------------------------------|
G|----10-1010-10-1010-----10-1010-10-1010-----9--9-9--9--9-9------------------|
D|0---7--7-7--7--7-7--8---8--8-8--8--8-8------7--7-7--7--7-7---5--5-5-8---8-8-|
A|0---8--8-8--8--8-8--8---8--8-8--8--8-8--8---8--8-8--8--8-8---5--5-5-8---8-8-|
D|0---0--0-0--0--0-0--8---8--8-8--8--8-8--7---7--7-7--7--7-7---5--5-5-8---8-8-|

E|----------------------------------------------------------------------------|
B|----------------------------------------------------------------------------|
G|----10-1010-10-1010-----10-1010-10-1010-----9--9-9--9--9-9------------------|
D|0---7--7-7--7--7-7--8---8--8-8--8--8-8------7--7-7--7--7-7--5-5-5-5-8-8-8-8-|
A|0---8--8-8--8--8-8--8---8--8-8--8--8-8--8---8--8-8--8--8-8--5-5-5-5-8-8-8-8-|
D|0---0--0-0--0--0-0--8---8--8-8--8--8-8--7---7--7-7--7--7-7--5-5-5-5-8-8-8-8-|
                                                              . . . . . . . .
E|---------------------------------------------------------------------------|
B|---------------------------------------------------------------------------|
G|---------------------------------------------------------------------------|
D|0--------------------------------------------------------------------------|
A|0--------------------------------------------------------------------------|
D|0--------------------------------------------------------------------------|
 [let ring for 4 counts]

Pre-breakdown: [Tempo speeds up from here until the outro]
E|-------------------------------------------------|
B|-------------------------------------------------|
G|-------------------------------------------------|
D|-------------------------------------------------|
A|0-0-0----0-0-0----0-0-0----0-0-0----0---0---0----|
D|0-0-0----0-0-0----0-0-0----0-0-0----0---0---0----|
  . . x.   . . x.   . . x.   . . x.   .   .   .
E|-------------------------------------------------|
B|-------------------------------------------------|
G|-------------------------------------------------|
D|-------------------------------------------------|
A|0-0-0----0-0-0----0-0-0--------------------------|
D|0-0-0----0-0-0----0-0-0------------3-------------|
  . . x.   . . x.   . . x.           *~~~

Breakdown:
E|-------------------------------------------------|
B|-------------------------------------------------|
G|-------------------------------------------------|
D|-------------------------------------------------|
A|0-0-0----0-0-0----0-0-0----0-0-0----0---0---0----|
D|0-0-0----0-0-0----0-0-0----0-0-0----0---0---0----|
  . . x.   . . x.   . . x.   . . x.   .   .   .

E|-------------------------------------------------|
B|-------------------------------------------------|
G|-------------------------------------------------|
D|-------------------------------------------------|
A|0-0-0----0-0-0----0-0-0----0-0-0----0---0---0----|
D|0-0-0----0-0-0----0-0-0----0-0-0----0---0---0----|
  . . x.   . . x.   . . x.   . . x.   .   .   .

E|----------------------------------------------------|
B|----------------------------------------------------|
G|----------------------------------------------------|
D|----------------------------------------------------|
A|8-8-8----8-8-8----8-8-8----8-8-8----10---10---10----|
D|8-8-8----8-8-8----7-7-7----7-7-7----10---10---10----|
  . . x.   . . x.   . . x.   . . x.   .    .    .

E|----------------------------------------------------|
B|----------------------------------------------------|
G|----------------------------------------------------|
D|-------------------------------------10-------------|
A|8-8-8----8-8-8----8-8-8----8-8-8--0--10-------------|
D|8-8-8----8-8-8----7-7-7----7-7-7--0--10-------------|
  . . x.   . . x.   . . x.   . . .  .

E|-------------------------------------------------|
B|-------------------------------------------------|
G|-------------------------------------------------|
D|0-0-0----0-0-0----0-0-0----0-0-0----0---0---0----|
A|0-0-0----0-0-0----0-0-0----0-0-0----0---0---0----|
D|0-0-0----0-0-0----0-0-0----0-0-0----0---0---0----|
  . . .    . . .    . . .    . . .    .   .   .

E|-------------------------------------------------|
B|-------------------------------------------------|
G|-------------------------------------------------|
D|0-0-0----0-0-0----0-0-0----0-0-0----0---0---0----|
A|0-0-0----0-0-0----0-0-0----0-0-0----0---0---0----|
D|0-0-0----0-0-0----0-0-0----0-0-0----0---0---0----|
  . . .    . . .    . . .    . . .    .   .   .

E|----------------------------------------------------|
B|----------------------------------------------------|
G|----------------------------------------------------|
D|8-8-8----8-8-8--------------------------------------|
A|8-8-8----8-8-8----8-8-8----8-8-8----10---10---10----|
D|8-8-8----8-8-8----7-7-7----7-7-7----10---10---10----|
  . . .    . . .    . . .    . . .    .    .    .

E|----------------------------------------------------|
B|----------------------------------------------------|
G|----------------------------------------------------|
D|8-8-8----8-8-8--------------------------------------|
A|8-8-8----8-8-8----8-8-8----8-8-8----10---10---10----|
D|8-8-8----8-8-8----7-7-7----7-7-7----10---10---10----|
  . . .    . . .    . . .    . . .    .    .    .

E|-------------------------------------------------|
B|-------------------------------------------------|
G|-------------------------------------------------|
D|-------------------------------------------------|
A|0-0-0----0-0-0----0-0-0----0-0-0----0---0---0----|
D|0-0-0----0-0-0----0-0-0----0-0-0----0---0---0----|
  . . x.   . . x.   . . x.   . . x.   .   .   .

E|-------------------------------------------------|
B|-------------------------------------------------|
G|-------------------------------------------------|
D|-------------------------------------------------|
A|0-0-0----0-0-0----0-0-0----0-0-0----0---0---0----|
D|0-0-0----0-0-0----0-0-0----0-0-0----0---0---0----|
  . . x.   . . x.   . . x.   . . x.   .   .   .

E|----------------------------------------------------|
B|----------------------------------------------------|
G|----------------------------------------------------|
D|----------------------------------------------------|
A|8-8-8----8-8-8----8-8-8----8-8-8----10---10---10----|
D|8-8-8----8-8-8----7-7-7----7-7-7----10---10---10----|
  . . x.   . . x.   . . x.   . . x.   .    .    .

E|----------------------------------------------------|
B|----------------------------------------------------|
G|----------------------------------------------------|
D|----------------------------------------------------|
A|8-8-8----8-8-8----8--8--8--10--10--10--10--0--0--0--|
D|8-8-8----8-8-8----7--7--7--10--10--10--10--0--0--0--|
  . . x.   . . x.      .  .  .   .   .   .   .  .  .

Bridge:
E|------------------------------------------------|
B|11-------11-------10-------10-------13----------|
G|---10-------10-------10-------10-------10----10-|
D|------12-------12-------12-------12-------12----|
A|------------------------------------------------|
D|------------------------------------------------|

E|------------------------------------------------|
B|11-------11-------10-------10-------13----------|
G|---10-------10-------10-------10-------10----10-|
D|------12-------12-------12-------12-------12----|
A|------------------------------------------------|
D|------------------------------------------------|

E|------------------------------------------------|
B|11-------11-------10-------10-------13----------|
G|---10-------10-------10-------10-------10----10-|
D|------12-------12-------12-------12-------12----|
A|------------------------------------------------|
D|------------------------------------------------|

E|------------------------------------------------|
B|11-------11-------10-------10-------13----------|
G|---10-------10-------10-------10-------10----10-|
D|------12-------12-------12-------12-------12----|
A|------------------------------------------------|
D|------------------------------------------------|

E|------------------------------------------------|
B|11-------11-------10-------10-------13----------|
G|---10-------10-------10-------10-------10----10-|
D|------12-------12-------12-------12-------12----|
A|------------------------------------------------|
D|------------------------------------------------|

E|------------------------------------------------|
B|11-------11-------10-------10-------13----------|
G|---10-------10-------10-------10-------10----10-|
D|------12-------12-------12-------12-------12----|
A|------------------------------------------------|
D|------------------------------------------------|

E|------------------------------------------------|
B|11-------11-------10-------10-------13----------|
G|---10-------10-------10-------10-------10----10-|
D|------12-------12-------12-------12-------12----|
A|------------------------------------------------|
D|------------------------------------------------|

E|------------------------------------------------|
B|11-------11-------10----------------------------|
G|---10-------10----------------------------------|
D|------12-------12------------0--0--0------------|
A|-----------------------------0--0--0------------|
D|-----------------------------0--0--0--3---------|
                               .  .  .  *~~~

Chorus:
E|----------------------------------------------------------------------------|
B|----------------------------------------------------------------------------|
G|----10-1010-10-1010-----10-1010-10-1010-----9--9-9--9--9-9------------------|
D|0---7--7-7--7--7-7--8---8--8-8--8--8-8------7--7-7--7--7-7---5--5-5-8---8-8-|
A|0---8--8-8--8--8-8--8---8--8-8--8--8-8--8---8--8-8--8--8-8---5--5-5-8---8-8-|
D|0---0--0-0--0--0-0--8---8--8-8--8--8-8--7---7--7-7--7--7-7---5--5-5-8---8-8-|

E|----------------------------------------------------------------------------|
B|----------------------------------------------------------------------------|
G|----10-1010-10-1010-----10-1010-10-1010-----9--9-9--9--9-9------------------|
D|0---7--7-7--7--7-7--8---8--8-8--8--8-8------7--7-7--7--7-7--5-5-5-5-8-8-8-8-|
A|0---8--8-8--8--8-8--8---8--8-8--8--8-8--8---8--8-8--8--8-8--5-5-5-5-8-8-8-8-|
D|0---0--0-0--0--0-0--8---8--8-8--8--8-8--7---7--7-7--7--7-7--5-5-5-5-8-8-8-8-|
                                                              . . . . . . . .

Outro:
E|---------------------------------------------------------------|
B|---------------------------------------------------------------|
G|---------------------------------------------------------------|
D|-------------------------------------------------------------0-|
A|----8p0---7p0------------------------------------------------0-|
D|0-0-----0-----0-10p0-8p0-7p0-8p0-0-0-8p0-0-7p0-0-5p0-3p0-2---0-|
  . .     .     .                @ . .     .     .         ~   x


myspace.com/picturemebroken


 p  pull-off
 .  palm-muted
 ~  vibrato
 x  non-ringing note
 x. non-ringing palm-muted note
 @  Ghost Note
 *  Pinch Harmonic [no vibrato]
 *~ Pinch Harmonic [w/vibrato]
=============================================================================
Добавлено: 04.01.2014
Другие материалы по этой песне:
  • Аккорды и текст

Страница создана 04.01.2014
http://primanota.ru/misc-unsigned-bands/picture-me-broken-dearest-chords.htm
Привет, Гость.
Предлагаем пройти революционный курс по гитаре.
Подарок от PrimaNota.Ru, забирай!