PrimaNota.ru - самый крупный в мире бесплатный архив песенных текстов, аккордов, табулатур и нот


Misc Unsigned Bands - Piero Umiliani - Crepuscolo Sul Mare - таба

Регистрация Запомнить меня
Войти через:  Facebook Google Twitter Vk Yandex Mail.ru

Misc Unsigned Bands - Piero Umiliani - Crepuscolo Sul Mare - таба

Печатать
Просмотров: 68
Ok so I got the melody and the high notes, but as for the bass well I can't figure out
it could possible all be played on one guitar so I figured there must be two on the
or at least a guitar with a bass. In any case I tabbed the guitar and bass parts 
if you can figure a way to put them together then more power to you.

   '   '   '   '   '   '   '   '
e:-6-----4-6-----4-6-----4-9---7---|
B:-----4-------4-------4-----0---0-|
G:---4-------4-------4-------------|
D:---------------------------------|1
A:---------------------------------|
E:---------------------------------|

   '   '   '   '   '   '   '   '
e:-6-----4-6-----4-6-----4-9---7---|
B:-----4-------4-------4-----0---0-|
G:---4-------4-------4-------------|2
D:---------------------------------|
A:---------------------------------|
E:---------------------------------|

   '   '   '   '   '   '   '   '
e:-6-----4-6-----4-6-----4-6---4---|
B:-----4-------4-------4-----4---4-|
G:---4-------4-------4-------------|
D:---------------------------------|3
A:---------------------------------|
E:---------------------------------|

   '   '   '   '   '   '   '   '
e:-2-----0-2-----0-2-----0-2---0---|
B:-----0-------0-------0-----0-----|
G:---0-------0-------0-------------|
D:---------------------------------|4
A:---------------------------------|
E:---------------------------------|

   '   '   '   '   '   '   '   '
e:---------------------------------|
B:-6---0-4-6---0-4-6---0-4-6---4---|
G:---------------------------------|
D:---6-------6-------6-------------|5
A:---------------------------------|
E:---------------------------------|
   '   '   '   '   '   '   '   '
e:-0-------0-------0---------------|
B:-------3-------3-------0---3-5/11|
G:---0-3-----0-3-----0h3---3-------|
D:---------------------------------|6
A:---------------------------------|
E:---------------------------------|

Repeat up to 4 and then
   '   '   '   '   '   '   '   '
e:-----------------0-----0---------|
B:-6---0-4-6---0-4---------4---2---|
G:-------------------0-3-----------|
D:---6-------6---------------------|7
A:---------------------------------|
E:---------------------------------|

   '   '   '   '   '   '   '   '
e:-----------------0-----0---------|
B:-6---0-4-6---0-4---------4---2---|
G:-------------------0-3-----------|8
D:---6-------6---------------------|
A:---------------------------------|
E:---------------------------------|

   '   '   '   '   '   '   '   '
e:-------------4---0-----0---------|
B:-0---0-4-0-4---4-----2---4---2---|
G:---1---------------3-------3---3-|9
D:---------------------------------|
A:---------------------------------|
E:---------------------------------|

   '   '   '   '   '   '   '   '
e:-------------4---0-----0---------|
B:-0---0-4-0-4---4-----2---4---2---|
G:---1---------------3-------3---3-|
D:---------------------------------|10
A:---------------------------------|
E:---------------------------------|

   '   '   '   '   '   '   '   '
e:-------------------4---4-7-------|
B:-0-----0---0-4-0-4---4-----------|
G:-----2---2-----------------------|
D:---2-----------------------------|11
A:---------------------------------|
E:---------------------------------|


   '   '   '   '   '   '   '   '
e:-7-----5-7-----5-7-----5-7---5---|
B:-----5-------5-------5-----------|
G:---6-------6-------6-------------|
D:---------------------------------|12
A:---------------------------------|
E:---------------------------------|

   '   '   '   '   '   '   '   '
e:-6-----4-6-----4-6-----4-6---4---|
B:-----4-------4-------4-----0---0-|
G:---4-------4-------4-------------|
D:---------------------------------|13
A:---------------------------------|
E:---------------------------------|

   '   '   '   '   '   '   '   '
e:-7-----5-7-----5-7-----5-7---5---|
B:-----5-------5-------5-----------|
G:---6-------6-------6-------------|
D:---------------------------------|14
A:---------------------------------|
E:---------------------------------|

 '   '   '   '   '   '   '   '
e:-6-----4-6-----4-6-----4-6---4/11|
B:-----4-------4-------4-----0-----|
G:---4-------4-------4-------------|15
D:---------------------------------|
A:---------------------------------|
E:---------------------------------|


   '   '   '   '   '   '   '   '
e:-11------9-11-------9-11------9-11---9|
B:-------9----------9---------9---------|
G:----10---------10--------10-----------|
D:--------------------------------------|16
A:--------------------------------------|
E:--------------------------------------|

   '   '   '   '   '   '   '   '
e:-11-----9-11-----9-11-----9-11---9-|
B:------9--------9--------9----------|
G:----9--------9--------9------------|
D:-----------------------------------|17
A:-----------------------------------|
E:-----------------------------------|

   '   '   '   '   '   '   '   '
e:-11-----9-11-----9-11-----9-11---9-|
B:------8--------8--------8----------|
G:----9--------9--------9------------|
D:-----------------------------------|18
A:-----------------------------------|
E:-----------------------------------|

   '   '   '   '   '   '   '   '
e:-11-----7-11-----7-11---9---7---9--|
B:------9--------9-------------------|
G:----8--------8--------8---8---8----|
D:-----------------------------------|19
A:-----------------------------------|
E:-----------------------------------|

And then it just repeats from the beginning up until 8 and then

   '   '   '   '   '   '   '   '
e:---------------------------------|
B:-0-------0-------2-----2-0-------|
G:-----1-3-----1-3-----0-------3---|
D:---1-------1-------1-------------|
A:---------------------------------|
E:---------------------------------|

   '   '   '   '   '   '   '   '
e:---------------------------------|
B:-0-------0-------2-----2-0-------|
G:-----1-3-----1-3-----0-------3---|
D:---1-------1-------1-------------|
A:---------------------------------|
E:---------------------------------|

   '   '   '   '   '   '   '   '
e:---------------------------------|
B:---------------------------------|
G:-1-----1-----1-----0-----0-----0-|
D:-----1-----1-----1-----1-----1---|
A:---2-----2-----2-----4-----4-----|
E:---------------------------------|

Start to slow down

   '   '   '   '   '   '   '   '
e:---------------------------------|
B:---------------------------------|
G:-1-----1-----1-----0-----0-----0-|
D:-----1-----1-----1-----1-----1---|
A:---2-----2-----2-----4-----4-----|
E:---------------------------------|

Then restart from the beginning and play all the way through once more.
Добавлено: 07.08.2013
Другие материалы по этой песне:
  • Аккорды и текст

Страница создана 07.08.2013
http://primanota.ru/misc-unsigned-bands/piero-umiliani-crepuscolo-sul-mare-chords.htm
Привет, Гость.
Предлагаем пройти революционный курс по гитаре.
Подарок от PrimaNota.Ru, забирай!