PrimaNota.ru - самый крупный в мире бесплатный архив песенных текстов, аккордов, табулатур и нот


Misc Unsigned Bands - Phineas And Ferb - Theme - таба

Регистрация Запомнить меня
Войти через:  Facebook Google Twitter Vk Yandex Mail.ru

Misc Unsigned Bands - Phineas And Ferb - Theme - таба

Печатать
Просмотров: 81
Hi, my name's Jonathan Lagger... Here's my version of phineas n ferb
Theme song.

If you think I got something wrong please send me an e-mail
And I'll check it out, my e-mail is john_hardcore@hotmail.com

Enjoy!!

~ = vibrato
()= Pinched Harmonic or squealy
b = bending

There's a 104 days...

e -------4---------4---------4----------------|
b ---------4---------4---------4-------4------|
g -----5-----5---5-----5---5-----5---5---5----|
d --------------------------------------------|
a --------------------------------------------|
E ---4---------4---------4---------6----------|

e -------4---------4---------4----------------|
b ---------4---------4---------4--------------|
g -----5-----5---5-----5---5-----5------------|
d ----------------------------------8---------|
a ----------------------------------8---------|
E ---4---------4---------4----------6---------|

Building a rocket or fighting...

e --4-4-4-4-4-4-4-4-6-6-6-6-6-6-6-6-----------------4-4-4-4-4-4--------|
b --4-4-4-4-4-4-4-4-6-6-6-6-6-6-6-6-4-4-4-4-4-4-4-4-4-4-4-4-4-4--------|
g --5-5-5-5-5-5-5-5-7-7-7-7-7-7-7-7-5-5-5-5-5-5-5-5-5-5-5-5-5-5--5-4-3-|
d --6-6-6-6-6-6-6-6-8-8-8-8-8-8-8-8-6-6-6-6-6-6-6-6-6-6-6-6-6-6--6-5-4-|
a ---------------------------------------------------------------6-5-4-|
E ---------------------------------------------------------------4-3-2-|

Surfing tidal waves, creating nanobots...
e ---------------------------------------------------------------|
b ---------------------------------------------------------------|
g -2-2-2-2-2-2-2-2-2-2---7-7-7-7-7-7-7-7-7-7----(7)--------------|
d -3-3-3-3-3-3-3-3-3-3---8-8-8-8-8-8-8-8-8-8---------------------|
a -3-3-3-3-3-3-3-3-3-3---8-8-8-8-8-8-8-8-8-8---------------------|
E -1-1-1-1-1-1-1-1-1-1---6-6-6-6-6-6-6-6-6-6---------------------|

e ---------------------------------------------------------------|
b ---------------------------------------------------------------|
g -4-4-4-4-4-4-4-4-4-4--9--9--9--9--9--9--9--9--9--9-------------|
d -5-5-5-5-5-5-5-5-5-5-10-10-10-10-10-10-10-10-10-10-------------|
a -5-5-5-5-5-5-5-5-5-5-10-10-10-10-10-10-10-10-10-10-------------|
E -3-3-3-3-3-3-3-3-3-3--8--8--8--8--8--8--8--8--8--8-------------|

On the part that goes "driving your sister insane"
2nd guitar plays this:
e ---11------11-----11-----11-----13-----11----|
b -- 14b16 --14b16--14b16--14b16- 16b18--14b16-|
g ---------------------------------------------|
d ---------------------------------------------|
a ---------------------------------------------|
E ---------------------------------------------|

As you can see there's a whole lot...

e ----------------------------------|
b -4-4-4-4-4-4-4-4------------------|
g -5-5-5-5-5-5-5-5--6-6-6-6-6-6-6-6-|
d -6-6-6-6-6-6-6-6--5-5-5-5-5-5-5-5-|
a ----------------------------------|
E ----------------------------------|

So stick with us cause...

e --------------------------------------------|
b --------------------------------------------|
g -2-2-2-7-7-7-7-7-7-2-2-2-5-5-5-5-5-5-7------|
d -3-3-3-8-8-8-8-8-8-3-3-3-6-6-6-6-6-6-8-(~9)-|
a -3-3-3-8-8-8-8-8-8-3-3-3-6-6-6-6-6-6-8------|
E -1-1-1-6-6-6-6-6-6-1-1-1-4-4-4-4-4-4-6------|

e ----------------------------------------|
b ----------------------------------------|
g -2-2--7-7-7-7--2-2--5-5--7-7--5-5-5-5-5-|
d -3-3--8-8-8-8--3-3--6-6--8-8--6-6-6-6-6-|
a -3-3--8-8-8-8--3-3--6-6--8-8--6-6-6-6-6-|
E -1-1--6-6-6-6--1-1--4-4--6-6--4-4-4-4-4-|

And that's it, the song is really short actually


Tabbed by :

                 JONATHAN LAGGER!!
Добавлено: 29.09.2013
Другие материалы по этой песне:
  • Аккорды и текст

Страница создана 29.09.2013
http://primanota.ru/misc-unsigned-bands/phineas-and-ferb-theme-chords.htm
Привет, Гость.
Предлагаем пройти революционный курс по гитаре.
Подарок от PrimaNota.Ru, забирай!