PrimaNota.ru - самый крупный в мире бесплатный архив песенных текстов, аккордов, табулатур и нот


Misc Unsigned Bands - Matthew - Something I Wrote - таба, видео

Регистрация Запомнить меня
Войти через:  Facebook Google Twitter Vk Yandex Mail.ru

Misc Unsigned Bands - Matthew - Something I Wrote - таба, видео

Печатать
Просмотров: 104
Уроки эстрадного вокала в Санкт-Петербурге
-------------------------------------------------------------------------------
                             Dont have one yet - Matthew
-------------------------------------------------------------------------------
Tabbed by: fanofnumber80
E-mail: fanofnumber80@gmail.com

Tuning: Standard
this is something I wrote it is pretty awesome!

e|---------------------------------------------------------------------------| Distortion on
B|---------------------------------------------------------------------------|
G|---------------------------------------------------------------------------|
D|---------------------------------------------------------------------------|
A|-----10-10-10----11-------10-10-10---9-------------------------------------|
E|-----8--8--8-----9x4fast--8--8--8----7x4fast-------------------------------|x4

e|---------------------------------------------------------------------------|
B|---------------------------------------------------------------------------|
G|---------------------------------------------------------------------------|
D|---------------------------------------------------------------------------|
A|-------10-10-9--7~------10-10-9--6~----------------------------------------|
E|-------0--0--0--0~x2----0--0--0--0~x2--------------------------------------|x4

e|---------10--10---10-----10------------------------------------------------|Go clean for this part
B|-----8----------8--------8-------------------------------------------------|
G|---9---9-------------9---9-------------------------------------------------|
D|---------------------------------------------------------------------------|
A|---------------------------------------------------------------------------|
E|---------------------------------------------------------------------------|x2 

Thats all I got, I hope it's worthy!

************************************

| /   slide up
| \   slide down
| h   hammer-on
| p   pull-off
| ~   vibrato
| +   harmonic
| x   Mute note
| b   Bend
| pb  Pre-bend
| br  Bend release
| pbr Pre-bend release
| brb Bend release bend

************************************
Добавлено: 12.07.2015
Другие материалы по этой песне:
  • Аккорды и текст

Страница создана 12.07.2015
http://primanota.ru/misc-unsigned-bands/matthew-something-i-wrote-chords.htm
Привет, Гость.
Предлагаем пройти революционный курс по гитаре.
Подарок от PrimaNota.Ru, забирай!