PrimaNota.ru - самый крупный в мире бесплатный архив песенных текстов, аккордов, табулатур и нот


Misc Unsigned Bands - Happy Birthday - таба, видео

Регистрация Запомнить меня
Войти через:  Facebook Google Twitter Vk Yandex Mail.ru

Misc Unsigned Bands - Happy Birthday - таба, видео

Печатать
Просмотров: 67
-------------------------------------------------------------------------------------------------
                             Christian Sisler - Happy Birthday
I don't know if this version of Happy Birthday exists, but I was just playing around of the 
guitar and I found this out. If you're a guitar player who thinks that just playing the melody of
Happy Birthday is slightly boring and can't sing (like me) while playing the chords, then this
version is perfect for you. It instantly grabs the attention of the listener in a way that you
can't when you're just playing the melody on a string.
                                               ENJOY!!!
-------------------------------------------------------------------------------------------------
Tabbed by: Christian Sisler
E-mail: christiansisler934@gmail.com

Measures: 10
Tuning: E - Standard
Time: 9 / 8
Key: G Mixolydian (All natural)

  1
     e  e  e  e  e  e  e  e  e     e  e  e  e  e  e  e  e  e     e  e  e  e  e  e  e  e  e
     q.       q.       q.          q.       q.       q.         (q.)      q.       q. 
e||--3--------3--------3--------|--3--------3--------3--------|--3--------3--------3--------|
B||-----3--------3--------3-----|-----3--------3--------3-----|-----3--------3--------3-----|
G||--------0--------0--------0--|--------0--------0--------0--|--------0--------0--------0--|
D||-----------------------------|-----------------------------|-----------------------------|
A||--------------------0--------|-----------3--------2--------|-(2)-------------------------|
E||--3--------3-----------------|--3--------------------------|-----------3--------3--------|
  
  4
    e  e  e  e  e  e  e  e  e     e  e  e  e  e  e  e  e  e     e  e  e  e  e  e  e  e  e
    q.       q.       q.          h.                q.          q.       q.       q.
e|--3--------3--------3--------|--3--------3--------3--------|--3--------3--------3---------|
B|-----3--------3--------3-----|-----3--------3--------3-----|-----3--------3--------3------|
G|--------0--------0--------0--|--------0--------0--------0--|--------0--------0--------0---|
D|--------------------0--------|-----------------------------|-----------2--------0---------|
A|--0--------------------------|--3--------------------------|------------------------------|
E|-----------3-----------------|--------------------3--------|--3---------------------------|

  7
    e  e  e  e  e  e  e  e  e     e  e  e  e  e  e  e  e  e     e  e  e  e  e  e  e  e  e
    q.       q.       q.          h.                q.          q.       q.       q.
e|--3--------3--------3--------|--3--------3--------3--------|--3--------3--------3---------|
B|-----3--------3--------3-----|-----3--------3--------3-----|-----3--------3--------3------|
G|--------0--------0--------0--|--------0--------0--------0--|--------0--------0--------0---|
D|-----------------------------|--------------------3--------|--3--------2------------------|
A|--3--------2--------0--------|--0--------------------------|--------------------3---------|
E|-----------------------------|-----------------------------|------------------------------|
   
 10          C
    e  e  e  @
    q.       h.
e|--3--------0--||
B|-----3-----1--||
G|--------0--0--||
D|--0--------2--||
A|-----------3--||
E|--------------||



************************************
| @   fermata (held out for as long as you desire)
| ()  ties
| W, H, Q, E, S, T   rest lengths
| w, h, q, e, s, t   note lengths
| /   slide up
| \   slide down
| h   hammer-on
| p   pull-off
| ~   vibrato
| +   harmonic
| x   Mute note
| b   Bend
| pb  Pre-bend
| br  Bend release
| pbr Pre-bend release
| brb Bend release bend

************************************
Добавлено: 12.07.2015
Другие материалы по этой песне:
  • Аккорды и текст

Страница создана 12.07.2015
http://primanota.ru/misc-unsigned-bands/happy-birthday-chords.htm
Привет, Гость.
Предлагаем пройти революционный курс по гитаре.
Подарок от PrimaNota.Ru, забирай!