PrimaNota.ru - самый крупный в мире бесплатный архив песенных текстов, аккордов, табулатур и нот


Misc Unsigned Bands - Martin Tallstrom - My Heart Will Go On - таба

Регистрация Запомнить меня
Войти через:  Facebook Google Twitter Vk Yandex Mail.ru

Misc Unsigned Bands - Martin Tallstrom - My Heart Will Go On - таба

Печатать
Просмотров: 186
-------------------------------------------------------------------------------
                             My Heart Will Go On - Martin Tallström
-------------------------------------------------------------------------------
Tabbed by: LillaMartin
E-mail: RasmusSture@hotmail.se

Tuning: Standard capo 3 fret. 

https://www.youtube.com/watch?v=BY1nOVh3tzw

So i have tabbed out whole song as good as i can. If you can find any 
corrections feel free to comment below.
Wish you best of luck and dont forget to check out Martins channel:

https://www.youtube.com/watch?v=BY1nOVh3tzw
http://www.tallstrom.com/

Let the notes ring as long as you can! :) 
Sorry at first for not letting it be space where it should be. Play along with
Martin and you will get the speed down. 

Fast phace intro:

e|--0--------------------------3-3-1-0-------------------------------------0-|
B|--1-------3-h5p3/0-3-------3----------1---------------------------0h1h3----|
G|-------------------------0---------------------0-2-------------0-----------|
D|-----------------------0---------------------3-----3---------0-------------|
A|-----0---------------2---------------------3-------------0h2---------------|
E|-----------------------------------------1-------------3-------------------|

e|--------------0h1p0--------------------------0h3/5---------5-3-------------|
B|-----------1---------3-----3h5/8--------------------------------5---3------|
G|--------0---------------5----------------0--------------5-----------4------|
D|-----2--------------------------------0--------------3--------------5------|
A|--0------------------------------------------------------------------------|
E|-----------------------------------7--------------------------------3------|

Now to the verse!

e|-------------------------------------------0-------------------------------|
B|--0h1-----1--1---0-----1--0---0h1----------------3--1------------1---------|
G|--0-----------------0---------0---------------0---------------0------------|
D|-------2----------------------------(12)-------------------2---------------|
A|--3-----------------------------------------------------3------------------|
E|-----------------3------------1------------3-------------------------3-----|

e|---------------------------------------------------------------------------|
B|--0--1--1-------------------------------0h1-------------1------0--1--0-----|
G|-----------0-------------0---------0h2---------------0---------------------|
D|----------------------3---------3-----------------2------------------------|
A|-------------------3---------3-----------------3---------------------------|
E|--3------------1--------------------------------------------3--3-----------|

e|-------------0-------------------------------------------------------------|
B|--0h1--------------3--1------------1-----0--1--1---------------------------|
G|--0-------------0---------------0-----------------0-----------0------------|
D|-------(12)------------------2-----------------------------3---------------|
A|--------------------------3-----------------------------3------------------|
E|--1----------3------------------------3--3-----------1---------------------|

e|-----------------------------------------------------------------------0---|
B|-------------0h1------------1--3--------------------8---------------6------|
G|--------0h2--------------0----------------------0---------------0----------|
D|-----3----------------2---------------------0---------------7--------------|
A|--3----------------0------------------0h2---------------8------------------|
E|-----------------------------------3---------------------------------------|

e|---------------0h1p0-------------------------------------------------------|
B|-3----------0-------------------1----0----1---1----------------------------|
G|---------0-------------2----------------0-------0---h2--/3/2p0-------0-----|
D|------0-------------------(12)----------------------------------0h2--------|
A|---------------------0-----------------------------------------------------|
E|---3---------------------------------3--------------1----------------------|

e|------------------------0--------------------------------------------------|
B|---------------0--h1/3---------------1--3------------------8--8------------|
G|------------0-----h2/4------------0--0--0---------------0-----------0------|
D|---------0---------------------2---------------------0-----------7---------|
A|------2---------------------0-------------------0h2-----------8------------|
E|---3-----------------------------------------3-----------------------------|

e|----------0----------------0h1p0-------------------------------------------|
B|--6h8p6------3----------3-----------------------1--0-----1--0---0h1--------|
G|---------------------0----------------2---------------0---------0----------|
D|------------------0----------------------(12)------------------------------|
A|-----------------------------------0---------------------------------------|
E|---------------3-----------------------------------3------------1----------|

e|--------0------------------------------------------------------------------|
B|--------------3--1---------------------------------------------------------|
G|-----------0---------------------------------------------------------------|
D|--(12)---------------------------------------------------------------------|
A|---------------------0-----------------------------------------------------|
E|--------3------------------------------------------------------------------|

Then back to a short version of the intro:

e|----0h1p0--------------------------0h3/5---------5-3-----------------------|
B|-----------3-----3h5/8--------------------------------5---3----------------|
G|--------------5----------------0--------------5-----------4----------------|
D|----------------------------0--------------3--------------5----------------|
A|---------------------------------------------------------------------------|
E|-------------------------7--------------------------------3----------------|

So back to verse again and Martin does some very minor changes the second verse.

e|-------------------------------------------0-------------------------------|
B|--0h1-----1--1---------1--0---0h1----------------3--1------------1---------|
G|--0--------------4------------0---------------0---------------0------------|
D|-------2------------0---------------(12)-------------------2---------------|
A|--3-----------------------------------------------------3------------------|
E|-----------------3------------1------------3-------------------------3-----|

e|---------------------------------------------------------------------------|
B|-------1-1------------------------------0h1-------------1-----------1--0---|
G|--4--------0-------------0---------0h2---------------0---------4-----------|
D|-----0----------------3---------3-----------------2---------------0--------|
A|-------------------3---------3-----------------3---------------------------|
E|--3------------1--------------------------------------------3--3-----------|

e|-------------0-------------------------------------------------------------|
B|--0h1--------------3--1------------1-----------1--1------------------------|
G|--0-------------0---------------0--------4-----------0-----------0---------|
D|-------(12)------------------2--------------5-----------------3------------|
A|--------------------------0--------------------------------3---------------|
E|--1----------3------------------------0--0--------------1------------------|

e|-----------------------------------------------------------------------0---|
B|-------------0h1------------1--3--------------------8---------------6------|
G|--------0h2--------------0--0--0----------------0---------------0----------|
D|-----3----------------2---------------------0---------------7--------------|
A|--3----------------0------------------0h2---------------8------------------|
E|-----------------------------------3---------------------------------------|

e|---------------0h1p0-------------------------------------------------------|
B|-3----------0-------------------1---------1---1----------------------------|
G|---------0-------------2-------------4----------0---h2--/3/2p0-------0-----|
D|------0-------------------(12)----------0-----------------------0h2--------|
A|---------------------0-----------------------------------------------------|
E|---3---------------------------------3--------------1----------------------|

e|------------------------0--------------------------------------------------|
B|---------------0--h1/3---------------1--3------------------8--8------------|
G|------------0-----h2/4------------0--0--0---------------0-----------0------|
D|---------0---------------------2---------------------0-----------7---------|
A|------2---------------------0-------------------0h2-----------8------------|
E|---3-----------------------------------------3-----------------------------|

e|----------0----------------0h1p0-------------------------------------------|
B|--6h8p6------3----------3-----------------------1--0-----1--0---0h1--------|
G|---------------------0----------------2---------------0---------0----------|
D|------------------0----------------------(12)------------------------------|
A|-----------------------------------0---------------------------------------|
E|---------------3-----------------------------------3------------1----------|

e|--------0------------------------------------------------------------------|
B|--------------3--1---------------------------------------------------------|
G|-----------0---------------------------------------------------------------|
D|--(12)---------------------------------------------------------------------|
A|---------------------0-----------------------------------------------------|
E|--------3------------------------------------------------------------------|

Intro again and then its time to wrap this baby up! :)

e|--0--------------------------3-3-1-0-------------------------------------0-|
B|--1-------3-h5p3/0-3-------3----------1---------------------------0h1h3----|
G|-------------------------0---------------------0-2-------------0-----------|
D|-----------------------0---------------------3-----3---------0-------------|
A|-----0---------------2---------------------3-------------0h2---------------|
E|-----------------------------------------1-------------3-------------------|

e|--------------0h1p0--------------------------0h3/5---------5--7--8---10----|
B|-----------1---------3-----3h5/8-------------------------------------8-----|
G|--------0---------------5----------------0--------------5--------5---------|
D|-----2--------------------------------0--------------3--------5------8-----|
A|--0--------------------------------------------------------------7---------|
E|-----------------------------------7---------------------------------------|

e|--(12)--------------0--2------------5/7---------5------0-------------------|
B|--(12)-----------0----------------------------------9-----7-------------8--|
G|--------------1------------------------------6-----------------------5-----|
D|-----------2-------------------2/4--------------------------------5--------|
A|--------4-------------------2-------------0--------------------5-----------|
E|---------------------------------------------------------------------------|

e|---5--6--5------------0---------0---0--------------------------------------|
B|-------------------7------4------------0---------------------------0-------|
G|--------------------------4----------------------2--1-----------1-----6----|
D|----------------7------------4----------------2--------4-----4-------------|
A|-------------5------------2----------------0--------------2----------------|
E|---------------------------------------------------------------------------|

e|-----0--------------0--2------------5/7---------5------0-------------------|
B|--4--------------0----------------------------------9-----7-------------8--|
G|--------------1------------------------------6-----------------------5-----|
D|-----------2-------------------2/4--------------------------------5--------|
A|--------4-------------------2-------------0--------------------5-----------|
E|---------------------------------------------------------------------------|

e|---5--6--5------------0---------0-------------0---2----2h4---4/5/4p2-------|
B|-------------------7------4---------4---4------------------------------5---|
G|--------------------------4-------------4--------------4-------------------|
D|----------------7------------2-------------2-------------------------------|
A|-------------5--------------------------0--------------2-------------------|
E|--------------------------4------------------------------------------------|

Repeat next part twice. 

e|----------------0--------------------------0---------------------------0---|
B|-------------0--------------------------4----------4----------------2------|
G|----------4-------------4------------4----------------4----------2---------|
D|-------6------------6-------------4------------4--------------2------------|
A|---------------------------------------------------------------------------|
E|---0---------------------------0---------------------------0---------------|

e|-----------------------------0---------------------------------------------|
B|-------2------------------4--------4---------------------------------------|
G|-----------2-----------4--------------4------------------------------------|
D|---2---------------/4----------4-------------------------------------------|
A|---------------------------------------------------------------------------|
E|----------------0----------------------------------------------------------|

2x times then this: 

e|------0--------------------------------------------0----------(12)---------|
B|--------------0---------------------------------0----------9---------------|
G|----------8-------------1--------------------1---------11------------------|
D|---------------------------2/4------------4--------------------------------|
A|-----------------(12)------------------2-----------------------------------|
E|--0---------------------------------0--------------------------------------|

Okey so there are a couple parts in the end i know isnt 100% but i couldnt
figure them out for now so i made it like this and i think its sounds fine! 
Добавлено: 06.06.2015
Другие материалы по этой песне:
  • Аккорды и текст

Страница создана 06.06.2015
http://primanota.ru/misc-unsigned-bands/martin-tallstrom-my-heart-will-go-on-chords.htm
Привет, Гость.
Предлагаем пройти революционный курс по гитаре.
Подарок от PrimaNota.Ru, забирай!