PrimaNota.ru - самый крупный в мире бесплатный архив песенных текстов, аккордов, табулатур и нот


Misc Unsigned Bands - Mark Holcomb Periphery - Untitled Demo - таба

Регистрация Запомнить меня
Войти через:  Facebook Google Twitter Vk Yandex Mail.ru

Misc Unsigned Bands - Mark Holcomb Periphery - Untitled Demo - таба

Печатать
Просмотров: 72
I take no ownership of this guitar tab. All credit goes to Bryan Nguyen for his guitar cover of the riff: 
https://www.youtube.com/watch?v=X1D9N5H00iM

Here is the video of Mark Holcomb playing the riff: 
https://www.youtube.com/watch?v=K-SEAvxqoXI - (2:13 - 2:40)

The riff is played twice

D----------------------|-----------------------------------|-------12-------------4-4-4-------7-7-7--|
A----------------------|-----------------------------------|-------10-------------5-5-5-------9-9-9--|
F-2-------2------------|-----------------------------14~~--|-------14-------------4-4-4--4-4--7-7-7--|
C-0-------0------------|----------------------0-7/11-------|----------------------7-7-7--2-2--111111-|
G-0--0-0--4------------|---------------9p0-----------------|-0--0-----12//--0--0--4-4-4--2-2--7-7-7--|
C-0--0-0--0--0-0-0-11^-|-0-4^--0-0-0-0-----11--------------|-0--0-----12//--0--0--4-4-4--2-2--7-7-7--|

D---------------------|---------------------|------------------0-5---|------------------0-12-------|
A---------------------|---------------------|--------------0-5-----9-|--------------0-9------10~~--|
F--9-------2~---------|---------------------|------------------------|-----------------------------|
C---------------------|---------------------|----------0-7-----------|---------0-11----------------|
G--11--0---4~---------|---------------------|------------------------|-----------------------------|
C------0--------------|-0-0-0-0-14^--0--14^-|-0-0-0-0----------------|-0-0-0-0---------------------|

D-----------------------------------------------|
A-10-9----9-------------------------------------|
F------11---11-9--------------------------------|
C----------------9~--7-4------------------------|
G------------------------7----------------------|
C--------------------------7-7-7-7--------------|

Key:
^ - Bend
~ - Ring out

Copyright Disclaimer Under Section 107 of the Copyright act 1976, allowance is made for ''fair use'' 
for purposes such as criticism, comment, news reporting, teaching, scholarship and research. Fair use 
is a permitted by copyright statute that may otherwise be infringing. Non-profit, educational or 
personal use tips the balance in favour of fair use.
Добавлено: 12.07.2015
Другие материалы по этой песне:
  • Аккорды и текст

Страница создана 12.07.2015
http://primanota.ru/misc-unsigned-bands/mark-holcomb-periphery-untitled-demo-chords.htm
Привет, Гость.
Предлагаем пройти революционный курс по гитаре.
Подарок от PrimaNota.Ru, забирай!