PrimaNota.ru - самый крупный в мире бесплатный архив песенных текстов, аккордов, табулатур и нот


Misc Unsigned Bands - Eric Cili - Melody 1 - таба

Регистрация Запомнить меня
Войти через:  Facebook Google Twitter Vk Yandex Mail.ru

Misc Unsigned Bands - Eric Cili - Melody 1 - таба

Печатать
Просмотров: 57
-------------------------------------------------------------------------------
                             ERICS MELODY
-------------------------------------------------------------------------------
Tabbed by:
Eric Cili

Tuning: Standard - EADGBE

    C                 Am               F                G7
e|-----------0----------------0----------------1-----------------1-----------|
B|---1---------1------1---------1------1---------1-------0---------0---0-----|
G|-----0---0-----0------2---2-----2------2---2-----2-------0---0-----0-------|  x3
D|-------2---------2------2---------2------0---------0-------0---------------|
A|---3----------------0----------------0-----------------2-------------------|
E|---------------------------------------------------------------------------|

    C                 Am               F                G7
e|--0-----------0-----0-----------0----1-----------1-----1-----------1-3-----|
B|----1-------1---1-----1-------1---1----1-------1---1-----0-------0---------|
G|------0---0-------------2---2------------2---2-------------0---0-----------|
D|--------2-----------------2----------------0-----------------0-------------| x3
A|--3-----------------0----------------0-----------------2-------------------|
E|---------------------------------------------------------------------------|

e|---------------------------------------------------------------------------|
B|---------------------------------------------------------------------------|
G|--------------TO-BE-CONTINUED----------------------------------------------|
D|---------------------------------------------------------------------------|
A|---------------------------------------------------------------------------|
E|---------------------------------------------------------------------------|
Добавлено: 12.07.2015
Другие материалы по этой песне:
  • Аккорды и текст

Страница создана 12.07.2015
http://primanota.ru/misc-unsigned-bands/eric-cili-melody-1-chords.htm
Привет, Гость.
Предлагаем пройти революционный курс по гитаре.
Подарок от PrimaNota.Ru, забирай!