PrimaNota.ru - самый крупный в мире бесплатный архив песенных текстов, аккордов, табулатур и нот


Misc Unsigned Bands - Flyers - Bradio Death Parade Op - таба

Регистрация Запомнить меня
Войти через:  Facebook Google Twitter Vk Yandex Mail.ru

Misc Unsigned Bands - Flyers - Bradio Death Parade Op - таба

Печатать
Просмотров: 336
-------------------------------------------------------------------------------
                             Flyers - BRADIO (Death Parade OP)
-------------------------------------------------------------------------------
Tabbed by: Crazy Chachonx
E-mail: kenshinbakkabakka@ymail.com

Tuning: Standard

Intro:

e|--------2-----2-----1-----2---------|
B|--2-----2-----3-----1-----2---------|
G|--2-----0-----2-----2-----0---------|
D|--2-----0-----------3-----0---------| (x2)
A|--0-----2-----------3-----2---------|
E|--------3-----------1-----3---------|

Verse:

e|--------2-----2-----1-----2---------|
B|--2-----2-----3-----1-----2---------|
G|--2-----0-----2-----2-----0---------|
D|--2-----0-----------3-----0---------| (x2)
A|--0-----2-----------3-----2---------|
E|--------3-----------1-----3---------|

e|---------------------------------------|
B|-----------10-x-x-10-x-x-10------------|
G|---------9-------------------9---------|
D|------7--------------------------------| (x3)
A|--10-----------------------------------|
E|---------------------------------------|

e|------------------------------------------------------------------|
B|--10--------------------------------------------------------------|
G|------9----7----x---x---7---------7-------------------------------|
D|-----------------------------10---------10------------------------|
A|------------------------------------------------------------------|
E|------------------------------------------------------------------|

e|---------------------------------------|
B|-----------10-x-x-10-x-x-10------------|
G|---------9-------------------9---------|
D|------7--------------------------------| (x3)
A|--10-----------------------------------|
E|---------------------------------------|

e|---------------------6-6-6-6-6-6-6-6--------|
B|--10-----------------6-6-6-6-6-6-6-6--------|
G|------9----7----9----7-7-7-7-7-7-7-7--------|
D|---------------------8-8-8-8-8-8-8-8--------|
A|---------------------8-8-8-8-8-8-8-8--------|
E|---------------------6-6-6-6-6-6-6-6--------|

Chorus:

e|---8----6----5----4-----6----------|
B|---8----6----6----4-----6----------|
G|---9----7----5----5-----7----------|
D|--10----8----7----6-----8----------| (x3)
A|--10----8----5----6-----8----------|
E|---8----6---------4-----6----------|

e|--5----4----3----2--------------------|
B|--5----5----3----3--------------------|
G|--5----4----0----2--------------------|
D|--7----6----0----0--------------------|
A|--7----7----2----x--------------------|
E|--5----4----3----0--------------------|

e|--1------3------5----7-----------------------------------------|
B|--1------3------6----8-----------------------------------------|
G|--2------4------5----7-----------------------------------------|
D|--3------5-------------------3-----5----6----8-----7------7--7-|
A|-----------------------------3-----5----6----8-----7------7--7-|
E|-----------------------------1-----3----4----6-----5------5--5-|



************************************

| /   slide up
| \   slide down
| h   hammer-on
| p   pull-off
| ~   vibrato
| +   harmonic
| x   Mute note
| b   Bend
| pb  Pre-bend
| br  Bend release
| pbr Pre-bend release
| brb Bend release bend

************************************
Добавлено: 25.06.2015
Другие материалы по этой песне:
  • Аккорды и текст

Страница создана 25.06.2015
http://primanota.ru/misc-unsigned-bands/flyers-bradio-death-parade-op-chords.htm
Привет, Гость.
Предлагаем пройти революционный курс по гитаре.
Подарок от PrimaNota.Ru, забирай!