PrimaNota.ru - самый крупный в мире бесплатный архив песенных текстов, аккордов, табулатур и нот


Misc Unsigned Bands - Four Years Dope - таба, видео

Регистрация Запомнить меня
Войти через:  Facebook Google Twitter Vk Yandex Mail.ru

Misc Unsigned Bands - Four Years Dope - таба, видео

Печатать
Просмотров: 124
Уроки эстрадного вокала в Санкт-Петербурге
-------------------------------------------------------------------------------
                             SONG NAME - Band Name
-------------------------------------------------------------------------------
Tabbed by: bkopichanski
E-mail: b.kopichanski@gmail.com

Tuning: Drop C#

IGNORE THE CHORD PART just for the riff so you can get it down

e|---------------------------------------------------------------------------|
B|---------------------------------------------------------------------------|
G|---------------------------------------------------------------------------|
D|----0-------------4----------------5-5-5-5-5-7-7-7-7-7---------------------|
A|----0-------4h5p0---5p4p0-7p5p4p0--5-5-5-5-5-7-7-7-7-7---------------------|
E|----0---0-0------------------------5-5-5-5-5-7-7-7-7-7---------------------|

e|---------------------------------------------------------------------------|
B|---------------------------------------------------------------------------|
G|---------------------------------------------------------------------------|
D|----0-------------4-------5p4------4-4-4-4-4-5-5-5-5-5---------------------|
A|----0-------4h5p0---5p4p0-----7p5--4-4-4-4-4-5-5-5-5-5---------------------|
E|----0---0-0------------------------4-4-4-4-4-5-5-5-5-5---------------------|




************************************

| /   slide up
| \   slide down
| h   hammer-on
| p   pull-off
| ~   vibrato
| +   harmonic
| x   Mute note
| b   Bend
| pb  Pre-bend
| br  Bend release
| pbr Pre-bend release
| brb Bend release bend

************************************
Добавлено: 14.06.2015
Другие материалы по этой песне:
  • Аккорды и текст

Страница создана 14.06.2015
http://primanota.ru/misc-unsigned-bands/four-years-dope-chords.htm
Привет, Гость.
Предлагаем пройти революционный курс по гитаре.
Подарок от PrimaNota.Ru, забирай!