PrimaNota.ru - самый крупный в мире бесплатный архив песенных текстов, аккордов, табулатур и нот


Misc Unsigned Bands - Katherines Broadcast - Take Me Home - бас-таба

Регистрация Запомнить меня
Войти через:  Facebook Google Twitter Vk Yandex Mail.ru

Misc Unsigned Bands - Katherines Broadcast - Take Me Home - бас-таба

Печатать
Просмотров: 70
-------------------------------------------------------------------------------
                             TAKE ME HOME - Katherine's Broadcast
-------------------------------------------------------------------------------
Tabbed by: Lumen Musica
E-mail: kaethoflight@live.com

Tuning:G-D-A-D (Drop-D Tuning)

Intro/Down Chorus
G|--------------------------------------------|
D|--------------------------------------------|
A|----6---------------------------------------|
D|----------8--6---\--333333333333-x5--6------|

Verse (2x)
G|----------------------------------------------------------------------|
D|----------------------------------------------------------------------|
A|----6666666666666666----------------333333333333333311111111111111----|
d|--------------------6666666666666666----------------------------------|

Pre-Chorus (2x, stop the second time on the first Bb of that form.)
G|-------------------------------------------|
D|-------------------------------------------|
A|--------------------3--3--3333-1--1--1111--|
D|----6---6---6-6-66-------------------------|

Chorus (2x, 2nd time add in a pick-up G between the F and the last set of G#)
G|-----------------------------------------------------------------------|
D|-----------------------------------------------------------------------|
A|----6666666666666666---------------------------------------------------|
D|--------------------666666666666666633333333333333336666666666666666---|

Post-Chorus(1x)
G|----------------------------------|
D|----------------------------------|
A|----666-66-6-66666666-666-66-6----|
D|----------------------------------|

Verse (2x)

Pre-Chorus (2x)

Chorus (2x)

Post Chorus(1x)

Bridge (1x)
G|--------------------------------------------------------|
D|--------------------------------------------------------|
A|----3333333333333333--------------------------------66--|
D|--------------------33333333333333336666666666666666----|

Intro/Down Chorus (1x)

Chorus (1x, half time, rhythms are loose, more flexible.)

End Note
G|----------------|
D|----------------|
A|-------6--------|
D|----------------|




| /  slide up
| \  slide down
| h  hammer-on
| p  pull-off
| ~  vibrato
| +  harmonic
| x  Mute note
===============================================================================
Добавлено: 22.06.2013
Другие материалы по этой песне:
  • Аккорды и текст

Страница создана 22.06.2013
http://primanota.ru/misc-unsigned-bands/katherines-broadcast-take-me-home-chords.htm
Привет, Гость.
Предлагаем пройти революционный курс по гитаре.
Подарок от PrimaNota.Ru, забирай!