PrimaNota.ru - самый крупный в мире бесплатный архив песенных текстов, аккордов, табулатур и нот


Misc Unsigned Bands - Love Affair - Everlasting Love - бас-таба

Регистрация Запомнить меня
Войти через:  Facebook Google Twitter Vk Yandex Mail.ru

Misc Unsigned Bands - Love Affair - Everlasting Love - бас-таба

Печатать
Просмотров: 83
Уроки эстрадного вокала в Санкт-Петербурге
Everlasting Love
Originally recorded by American Robert Knight.  This version
By The Love Affair number 1 in UK Jan 1968. The original bands
Bassist Mick Jackson may not have played on this recording.
Tab by bass50611.  Straight forward just a bit quick in places
Any comments bass254@btinternet.com

Intro:                         (PLAY THIS x2)
G|-----------|---------------------------------------------------|
D|---DRUM----|--------------------------------------6-7----------|
A|---START---|-7-7-7---7---6-6-6---6---4-4-4---4---9---9------6--|
E|-----------|------7-9---------6-8---------4-6-----------7-9--7-|

G|----------------------------------------------------------------|
D|----------------------------------------------------------------|
A|-77-7-7-77-77----77-7-7-77-77----77-7-7-77-77----77-7-7-77-77---|
E|--------------7---------------7---------------7---------------7-|

Verse: (PLAY THIS x 15)
G|--------------------|
D|---7-7-7-77-77-7----|
A|----------------7---|
E|--------------------|

G|----------------------------------|
D|----------------------------------|
A|---9-9-9-99-99-9------------------|
E|------------------7-7-7-77-77-7---|

Chorus:                             (PLAY THIS x 3)
G|---------------------------------------------------|
D|--------------------------------------6-7----------|
A|-7-7-7---7---6-6-6---6---4-4-4---4---9---9------6--|
E|------7-9---------6-8---------4-6-----------7-9--7-|

Bridge:
G|---------------------------------------|
D|---------------------------------------|
A|-7-7-7-7-5---------5---------5-7-7-7-7-|
E|-----------7-7-7-7---8-8-8-8-----------|

Solo:   (PLAY THIS x 7)
G|--------------------|
D|---7-7-7-77-77-7----|
A|----------------7---|
E|--------------------|

G|----------------------------------|
D|----------------------------------|
A|---9-9-9-99-99-9------------------|
E|------------------7-7-7-77-77-7---|

Repeat Chorus & Bridge:

Outro: Repeat Chorus to End/Fade:
Добавлено: 03.12.2013
Другие материалы по этой песне:
  • Аккорды и текст

Страница создана 03.12.2013
http://primanota.ru/misc-unsigned-bands/love-affair-everlasting-love-chords.htm
Привет, Гость.
Предлагаем пройти революционный курс по гитаре.
Подарок от PrimaNota.Ru, забирай!