PrimaNota.ru - самый крупный в мире бесплатный архив песенных текстов, аккордов, табулатур и нот


Misc Unsigned Bands - Love Affair - A Day Without Love - бас-таба, видео

Регистрация Запомнить меня
Войти через:  Facebook Google Twitter Vk Yandex Mail.ru

Misc Unsigned Bands - Love Affair - A Day Without Love - бас-таба, видео

Печатать
Просмотров: 56
A Day Without Love
Recorded and released in 1968 reaching number 6 in UK charts.
The Love Affairs original bassist was Mick Jackson but may
not have played on the original recording. Tabbed by bass50611.
Quite quick but fairly straight forward,
Loads of brass/orchestral sections.
Any comments its bass254@btinternet.com.

Intro:
G|-------||------------------------------------------------------------|
D|-DRUM--||-5-5-5-5---4-4-4-4---3-3-3-3---2-2-2-2----------------------|
A|-START-||------5---------4---------3---------2-----------------------|
E|-------||----------------------------------------5-5-5-55---3-3-3-33-|

G|-------------------------------------|
D|-------------------------------------|
A|------------5-5-5-55-----------------|
E|-2-2-2-22------------3-3-3-3-3-3-3-3-|

Verse: (x2)
G|--------------------------------------------------------------|
D|-5-5-5-5---4-4-4-4---3-3-3-3---2-2-2-2------22--2----4-77-4-7-|
A|------5---------4---------3---------2-----3----3----5---------|
E|----------------------------------------5---------------------|

G|-----------------------------------------|
D|-----22--2-------------------------------|
A|---3----3---5-5-55-----------------------|
E|-5-----------------7-5---3-3-3-3-3-3-3-3-|

Chorus 1:
G|--------------4----4----9-9------7-7------------------4----4----9-9--|
D|-5-5-5-5---------------9-9-9----7-7-7----5-5-5-5---------------9-9-9-|
A|------5-5---2---22----7-------5---------------5-5---2---22----7------|
E|---------------------------------------------------------------------|

G|----7-7------5-5------7-7------------------|
D|---7-7-7----5-5-5----7-7-7----5-5----------|
A|-5--------3--------5---------5-5-5---------|
E|---------------------------3-------3-3-3-3-|

Repeat Verse: (x2)

Chorus 2:
G|--------------4----4----9-9------7-7------------------4----4----9-9--|
D|-5-5-5-5---------------9-9-9----7-7-7----5-5-5-5---------------9-9-9-|
A|------5-5---2---22----7-------5---------------5-5---2---22----7------|
E|---------------------------------------------------------------------|

G|----7-7------5-5------7-7--|
D|---7-7-7----5-5-5----7-7-7-|
A|-5--------3--------5-------|
E|---------------------------|

Solo:
G-------------------------------------------------------------|
D|-5-5-5-5---4-4-4-4---3-3-3-3---2-2-2-2----------------------|
A|------5---------4---------3---------2-----------------------|
E|----------------------------------------5-5-5-55---3-3-3-33-|

G|---------------------|
D|---------------------|
A|------------5-5-5-55-|
E|-2-2-2-22------------|

Repeat Chorus 2:

Outro:
G-------------------------------------------------------------|
D|-5-5-5-5---4-4-4-4---3-3-3-3---2-2-2-2----------------------|
A|------5---------4---------3---------2-----------------------|
E|----------------------------------------5-5-5-55---3-3-3-33-|

G|------------------------------------5-5----------------|
D|----------------------5-55-----5-55-----5-55---------5-|
A|------------5-5-5-55-------3-3----------------3-3------|
E|-2-2-2-22----------------------------------------------|
Добавлено: 02.09.2013
Другие материалы по этой песне:
  • Аккорды и текст

Страница создана 02.09.2013
http://primanota.ru/misc-unsigned-bands/love-affair-a-day-without-love-chords.htm
Привет, Гость.
Предлагаем пройти революционный курс по гитаре.
Подарок от PrimaNota.Ru, забирай!