PrimaNota.ru - самый крупный в мире бесплатный архив песенных текстов, аккордов, табулатур и нот


Misc Unsigned Bands - Marc Almond - Tears Runs Rings - бас-таба

Регистрация Запомнить меня
Войти через:  Facebook Google Twitter Vk Yandex Mail.ru

Misc Unsigned Bands - Marc Almond - Tears Runs Rings - бас-таба

Печатать
Просмотров: 69
Tears Runs Rings
Original artist Marc Almond.  Released in 1988 reaching the dizzy
Heights of 26 in UK charts. Tab by bass50611. Straight forward song
Not perfect, 98% I think. Any comments its bass 254@btinternet.com

Intro:
G|---------------------------------------------------------------------|
D|---------------------------------------------------------------------|
A|-33-3-3-------11-1-1-0-------6-5---33-3-3--------11-1-1-0--------6-5-|
E|--------11-1-1---------33-3-3--------------11-1-1---------33-3-3-----|

Verse:
G|-----------------------------------------------------------------|
D|----------------------0-1-11-1-0---------------0-1-11-1-0--------|
A|-33-3-3--------11-1-1------------33-3-3-------------------33-3-3-|
E|--------11-1-1--------------------------11-1-1-------------------|

G|-------------------------------------------------------------------|
D|----------------------0-1-11-1-0--------33-3-3---0-1-11-1-0--------|
A|-33-3-3--------11-1-1------------33-3-3---------------------33-3-3-|
E|--------11-1-1-----------------------------------------------------|


Bridge 1:             (PLAY QUAVERS)
G|---------------------------------------|
D|---------------------------------------|
A|-66666666-66666666---88888888-88888888-|
E|---------------------------------------|

Repeat Verse:

Bridge 2:       (PLAY THIS x2)
G|-----------------------------|
D|-----------------------------|
A|-6---6-6-6---6-6-6---6-6---8-|
E|-----------------------------|

Solo:
G|---------------------------------------------------------------|
D|-10-10-10--------------------10-10-10--------------------------|
A|----------8-8-8-----------------------8-8-8---11-11-11---8-8-8-|
E|----------------9-9-9---8-8-8----------------------------------|

Repeat Verse:

Repeat Bridge 1:

Repeat Verse:

Repeat Bridge 2:

Repeat Verse:

Outro:                                       (REPEAT TO FADE)
G|---------------------------------------------------------------|
D|--------3-33-3-----------------------3-33-3--------------------|
A|-3-33-3-------1-11-1-0--------3-33-3--------1-11-1-0-------6-5-|
E|-----------------------3-33-3------------------------3-33-3----|
Добавлено: 07.07.2013
Другие материалы по этой песне:
  • Аккорды и текст

Страница создана 07.07.2013
http://primanota.ru/misc-unsigned-bands/marc-almond-tears-runs-rings-chords.htm
Привет, Гость.
Предлагаем пройти революционный курс по гитаре.
Подарок от PrimaNota.Ru, забирай!