PrimaNota.ru - самый крупный в мире бесплатный архив песенных текстов, аккордов, табулатур и нот


Misc Unsigned Bands - Kaz Silver - Believe In Myself Tails Theme Song - бас-таба

Регистрация Запомнить меня
Войти через:  Facebook Google Twitter Vk Yandex Mail.ru

Misc Unsigned Bands - Kaz Silver - Believe In Myself Tails Theme Song - бас-таба

Печатать
Просмотров: 113
        SA1 TAILS THEME "believe in myself" BASS TAB -TABED BY FOX AKA MATT MULLEN


INTRO BASS 0:00 - 0:15
g--------------------------------------------------------------------------------------------|
d--------------------------------------------------------------------------------------------|
a-0-2-3333-----------------------------------------------------------------------------------|
e---------------7777-5555-3333-11111111-3-3-1-0-1--5555-3333-1111111-33333333----------------|
B--------------------------------------------------------------------------------------------|

VERSE 0:15 - 0:42
G--------------------------------------------------------------------------------------------|
D--------------------------------------------------------------------------------------------|
A--0-2-3333333333--------------------------------------------------231111110-----------------| X2
E ---------------0000000000-1111111111-4444444444--4/7-0-0345555555---------333333-----------|
B--------------------------------------------------------------------------------------------|

PRE-CHORUS 0:42 - 0:58
G--------------------------------------------------------------------------------------------|
D--------------------------------------------------------------------------------------------|
A---------------03555553---------------------------------------------------------------------|
E-0000-0765-5555--------33333-11111111144444444-4-4-4-4--------------------------------------|
B--------------------------------------------------------------------------------------------|

CHORUS
G----------------------------------------------------------------------------------------------|
D----------------------------------------------------------------------------------------------|X2
A-----------55-33-11-00----00-11-33-11-00--------------55-33-11-00----------0-1-33333333-1-0---|
E-1-1-1-0-3-------------33----------------33-1-1-1-0-3-------------33333333-----------------3--|
B----------------------------------------------------------------------------------------------|

                 REPEAT ALL OF THIS  SO (X2) EXEPT THE INTRO SO GO BACK TO THE VERSE

sOLO
G--------------------------------------------------------------------------------------------|
D--------------------------------------------------------------------------------------------|
A-------------------------3333333300000000222222255555555--------33333333--------33333333555-|
E-333333332222222200000000-------------------------------33333333--------00000000------------|
B--------------------------------------------------------------------------------------------|

G----------------------------------------------------|
D--------------33333333-3-2--------------------------|
A-55555---------------------3-2----------------------|
E------00000000----------------3-2-------------------|
B----------------------------------------------------|

PRE-CHORUS 0:42 - 0:58
G------------------------------------------------------------------------|
D---------------------------------------------------------2-3-4-5-5-5-5--|
A---------------03555553---------------------------2-3-4-5---------------|
E-0000-0765-5555--------33333-111111111333333333-3-----------------------|
B------------------------------------------------------------------------|

CHORUS
G----------------------------------------------------------------------------------------------|
D----------------------------------------------------------------------------------------------|X2
A-----------55-33-11-00----00-11-33-11-00--------------55-33-11-00----------0-1-33333333-1-0---|
E-1-1-1-0-3-------------33----------------33-1-1-1-0-3-------------33333333-----------------3--|
B----------------------------------------------------------------------------------------------|

oUTRO
G--------------------------------------------------------------------------------------------|
D--------------------------------------------------------------------------------------------|
A--------------------------------------------------------------------------------------------|
E111111111-3333333333-555555555-5-1----------------------------------------------------------|
B--------------------------------2-----------------------------------------------------------|






IF YOU NEED HELP FEEL FREE TO ADD ME ON SKYPE, FACEBOOK, OR FOLLOW ME ON TWITTER Skype: 
lowlifebobcat FB: Matt Fox Mullen Twitter: Foxx_xxx
Добавлено: 16.07.2013
Другие материалы по этой песне:
  • Аккорды и текст

Страница создана 16.07.2013
http://primanota.ru/misc-unsigned-bands/kaz-silver-believe-in-myself-tails-theme-song-chords.htm
Привет, Гость.
Предлагаем пройти революционный курс по гитаре.
Подарок от PrimaNota.Ru, забирай!