PrimaNota.ru - самый крупный в мире бесплатный архив песенных текстов, аккордов, табулатур и нот


Misc Unsigned Bands - Imfedupwiththisorgasm - Hornet - бас-таба

Регистрация Запомнить меня
Войти через:  Facebook Google Twitter Vk Yandex Mail.ru

Misc Unsigned Bands - Imfedupwiththisorgasm - Hornet - бас-таба

Печатать
Просмотров: 50
                                   "Hornet"
                                       
                                      or 

                          "No More Pills To Swallow" 


                                    (DEMO)

Drop D tuning, 1st 6 is guitar tuning then the 5 is bass tuning
e   
B
G          G
D          D
A          A
D          D
           B

Intro
G|------------------------|------------------------|
D|-----15---14-----15-----|-----15---14-----12-----|
A|---0----0----0-0--------|---0----0----0-0--------| x3
D|-0----------------------|-0----------------------|
B|------------------------|------------------------|
                                                      
G|------------------------|------------------------|        
D|-----15---14-----15-----|-----15---17-----14-----|
A|---0----0----0-0--------|---0----0----0-0--------|
D|-0----------------------|-0----------------------|
B|------------------------|------------------------|

G|------------7----|
D|-14-15-14---0----| cresendo into lead playin main
A|--0--0--0---5----|    by itself 1st time
D|------------0----|
B|-----------------|

Main Riff
G|-------------------------------|
D|-------------------------------|         R guitar
A|-------------------------------| x2        bass
D|-0-0----0-0----0-0----00000000-|   drums all folllow this
B|-------------------------------|

R Guitar follows lead now

G|----------------------------------------------|
D|----------------------------------------------|
A|-----8---8------7---7------8---8--------------| bass plus drums follow
D|-0-0---0----0-0---0----0-0---0-----0-00000000-|          here
B|----------------------------------------------|

G|-------------------------------------|
D|-------------------------------------|
A|-----8---8------7---7------8---8---*-| end the 4th time L guitar 
D|-0-0---0----0-0---0----0-0---0-----0-|          only
B|-------------------------------------|

Main Chorus Riff
G|---------------------------------------------------|
D|-------------------------------------10-8-7----7---|
A|-----8---8------7---7------8---8------------10---8-| x4  everybody
D|-0-0---0----0-0---0----0-0---0-----0---------------|
B|---------------------------------------------------|

Verse 1
G|*--------------------------|
D|---------------------------|
A|*-----------------**-------| x3
D|-*-------------**-11-**-**-|
B|-3--3-3-3-3-3--33----33-11-|

G|-------------------------|
D|------------------------*|
A|-------------------------| repeat verse riff x2
D|------------------------*|
B|-3-3-3-5-5-5-6-6-6-1-1-1-|

Pre-Chorus
G|--------------------------|
D|----------10-8---7----7---|
A|--------------------10--8-| x4
D|-0--0-0-0-----------------|
B|--------------------------|

Chorus
G|---------------------------------------------------|
D|-------------------------------------10-8-7----7---|
A|-----8---8------7---7------8---8------------10---8-| x4
D|-0-0---0----0-0---0----0-0---0-----0---------------|
B|---------------------------------------------------|

G|-------------------------------------------------|
D|-------------------------------------8-6-5---5---|
A|-----5---5------3---3------5---5-----------8---6-| x2
D|-0-0---0----0-0---0----0-0---0-----0-------------|
B|-------------------------------------------------|

G|---------------------------------------------------|
D|-------------------------------------10-8-7----7---|
A|-----8---8------7---7------8---8------------10---8-| x2
D|-0-0---0----0-0---0----0-0---0-----0---------------|
B|---------------------------------------------------|

Verse 2
G|*--------------------------|
D|---------------------------|
A|*-----------------**-------| x3
D|-*-------------**-11-**-**-|
B|-3--3-3-3-3-3--33----33-11-|

G|-------------------------|
D|------------------------*|
A|-------------------------| repeat verse riff x2
D|------------------------*|
B|-3-3-3-5-5-5-6-6-6-1-1-1-|

Pre-Chorus 2
G|--------------------------|
D|----------10-8---7----7---|
A|--------------------10--8-| x4
D|-0--0-0-0-----------------|
B|--------------------------|

Chorus 2
G|---------------------------------------------------|
D|-------------------------------------10-8-7----7---|
A|-----8---8------7---7------8---8------------10---8-| x4
D|-0-0---0----0-0---0----0-0---0-----0---------------|
B|---------------------------------------------------|

G|-------------------------------------------------|
D|-------------------------------------8-6-5---5---|
A|-----5---5------3---3------5---5-----------8---6-| x2
D|-0-0---0----0-0---0----0-0---0-----0-------------|
B|-------------------------------------------------|

G|---------------------------------------------------|
D|-------------------------------------10-8-7----7---|
A|-----8---8------7---7------8---8------------10---8-| x2
D|-0-0---0----0-0---0----0-0---0-----0---------------|
B|---------------------------------------------------|

               


                         BREAKDOWN
                       STILL WRITING




Verse 3
G|*--------------------------|
D|---------------------------|
A|*-----------------**-------| x3
D|-*-------------**-11-**-**-|
B|-3--3-3-3-3-3--33----33-11-|

G|-------------------------|
D|------------------------*|
A|-------------------------| repeat verse riff x2
D|------------------------*|
B|-3-3-3-5-5-5-6-6-6-1-1-1-|

Pre-Chorus 3
G|--------------------------|
D|----------10-8---7----7---|
A|--------------------10--8-| x4
D|-0--0-0-0-----------------|
B|--------------------------|

Chorus 3
G|---------------------------------------------------|
D|-------------------------------------10-8-7----7---|
A|-----8---8------7---7------8---8------------10---8-| x4
D|-0-0---0----0-0---0----0-0---0-----0---------------|
B|---------------------------------------------------|

G|-------------------------------------------------|
D|-------------------------------------8-6-5---5---|
A|-----5---5------3---3------5---5-----------8---6-| x2
D|-0-0---0----0-0---0----0-0---0-----0-------------|
B|-------------------------------------------------|

G|---------------------------------------------------|
D|-------------------------------------10-8-7----7---|
A|-----8---8------7---7------8---8------------10---8-| x2
D|-0-0---0----0-0---0----0-0---0-----0---------------|
B|---------------------------------------------------|

G|-------------------------------|
D|-------------------------------|         R guitar
A|-------------------------------| x2        bass
D|-0-0----0-0----0-0----00000000-|   drums all folllow this
B|-------------------------------|

R Guitar follows lead now

G|----------------------------------------------|
D|----------------------------------------------|
A|-----8---8------7---7------8---8--------------| bass plus drums follow
D|-0-0---0----0-0---0----0-0---0-----0-00000000-|          here
B|----------------------------------------------|

G|-------------------------------------|
D|-------------------------------------|
A|-----8---8------7---7------8---8---*-| end the 4th time L guitar 
D|-0-0---0----0-0---0----0-0---0-----0-| only, and guitar holds last note
B|-------------------------------------| and slides it finally and done
Добавлено: 08.07.2013
Другие материалы по этой песне:
  • Аккорды и текст

Страница создана 08.07.2013
http://primanota.ru/misc-unsigned-bands/imfedupwiththisorgasm-hornet-chords.htm
Привет, Гость.
Предлагаем пройти революционный курс по гитаре.
Подарок от PrimaNota.Ru, забирай!