PrimaNota.ru - самый крупный в мире бесплатный архив песенных текстов, аккордов, табулатур и нот


Misc Unsigned Bands - Elliots Fall - Elijah Wood - таба

Регистрация Запомнить меня
Войти через:  Facebook Google Twitter Vk Yandex Mail.ru

Misc Unsigned Bands - Elliots Fall - Elijah Wood - таба

Печатать
Просмотров: 83
Уроки эстрадного вокала в Санкт-Петербурге
by ELLIOT'S FALL      
    
CAPO 2

VERSE                                                            2X
e||---------------------------------------------------------------|
B||----1-----1---------1-----1---------1-----1---------1-----1----|
G||--0-----0-----0---0-----0-----0---0-----0-----0---0-----0-----0|
D||------3-----3---------3-----0---------0-----0---------0-----0--|
A||0---------------2----------------------------------------------|
E||--------------------------------1---------------3--------------|

                                                              2X    
---------------------------------------------------------------|
----1-----1---------1-----1---------1-----1---------1-----1----|
--2-----2-----0---0-----0-----0---0-----0-----0---0-----0-----0|
------3-----3---------2-----0---------0-----0---------0-----0--|
0---------------3----------------------------------------------|
--------------------------------3---------------3--------------|

CHORUS 1/2 1X/3X 
e||-----------------------------------------------------------------------------------------|
B||3---3---8---8---7---7---3---3---5---5---3---3---7---7---8---8---3---3---5---5---3---3---7|
G||--0---0---0---0---0---0---0---0---0---0---0---0---0---0---0---0---0---0---0---0---0---0--|
D||-----------------------------------------------------------------------------------------|
A||2-------7-------5-------2-------3-------2-------5-------7-------2-------3-------2-------5|
E||-----------------------------------------------------------------------------------------|
Добавлено: 12.07.2015
Другие материалы по этой песне:
  • Аккорды и текст

Страница создана 12.07.2015
http://primanota.ru/misc-unsigned-bands/elliots-fall-elijah-wood-chords.htm
Привет, Гость.
Предлагаем пройти революционный курс по гитаре.
Подарок от PrimaNota.Ru, забирай!