PrimaNota.ru - самый крупный в мире бесплатный архив песенных текстов, аккордов, табулатур и нот


Misc Unsigned Bands - Glory For A Dead Man - Welcome To War - бас-таба

Регистрация Запомнить меня
Войти через:  Facebook Google Twitter Vk Yandex Mail.ru

Misc Unsigned Bands - Glory For A Dead Man - Welcome To War - бас-таба

Печатать
Просмотров: 53
My band, Glory For A Dead Man, have recently recorded our first track. Here's a 
bass tab, go over to Facebook to check out the song :)

Key:
\/ - slide
~ - Ring out
S - Slap
P - Pop
h - Hammer on
p - Pull off
x - Ghost note

F|--------------------------------|------------------------------------|
C|--------------------------------|------------------------------------|
G|--------------------------------|------------------------------------|
C|0~--------------8~------10~-10\-|0~--------------8~------1010----10\-|

F|----------------------------------------------------------------|
C|----------------------------------------------------------------|
G|----------------------------------------------------------------|
C|000-000-000-0-0--000--000-888-888-101010~-10-10-8101010-8101010-|

F|-----------------------------------------------------------------|
C|-----------------------------------------------------------------|
G|-----------------------------------------------------------------|
C|000-000-000-0-0--000--000-888-888-101010-10-10--8h10h12-12p10p8\-|

F|-------------------------------------------------------------------|
C|-------------------------------------------------------------------|
G|-------------------------------------------------------------------|
C|000-000-000-0-0--000--000-888-888-101010~-10-10-81010108101010-10~-|

F|----------------|--------------------------------|
C|----------------|--------------------------------|
G|----------------|--------------------------------|
C|/12-10-8-10--7\-|0~--------------0~------------1/|

F|---------------------------------|
C|---------------------------7-109-|
G|5--5555555555555555555555556-9-8-|
C|---------------------------------|

  S SPSPS SPSPS SPSP S    S SPSPS SPSPS SPSPS    S SPSPS SPSPS SPSP S SS SS S
F|---6-7---8-7---6-7-----|---6-7---8-7---6-7----|---6-7---8-7---6-7-----------|
C|-----------------------|----------------------|-----------------------------|
G|--5-5---5-5---5-5------|--5-5---5-5---5-5-----|--5-5---5-5---5-5------------|
C|0-----0-----0------0~--|0-----0-----0-----1/--|0-----0-----0------1-x4-x3-0-|

"Welcome to war"

C|12\-|

  S SPS S S S   S SPS S S S P S SPS S S S   S SPS S 
F|-------------|-------------|-------------|--------15--|
C|---3---------|---3--------4|---3---------|---3--------|
G|-------------|-------------|-------------|------3/----|
C|0-3-0-4-3-1--|0-3-0-4-3-1x-|0-3-0-4-3-1--|0-3-0-------|
= x2

F|--------------|---------------|--------------|---------15--|
C|--------------|---------------|--------------|-------------|
G|--------------|---------------|--------------|-------3/----|
C|0--3-0-4-3-1--|0--3-0-4-3-1-4-|0--3-0-4-3-1--|0--3-0-------|
= x2

F|----------------|-----------------|
C|----------------|-----------------|
G|----------------|0~--0~--3~--x2\0-|
C|0~--1~--4~--3~1~|0~--1~--4~--x3\1-|

F|------------------|------------------|------------------|---------7-------|
C|---------------6--|---------6--------|---------------6--|-----------6-----|
G|------------5-----|---------------5--|------------5-----|-------------5---|
C|0--0--0--6--------|0-00-000----6-----|0--0--0--6--------|0-00-00-0------6-|
= x2

F|---------7--7--7--|---------7-----7--|---------7--7--7--|---------7-------|
C|---------6--6--6--|---------6-----6--|---------6--6--6--|-------------6---|
G|------------------|------------5-----|------------------|-----------5-----|
C|0--0--0-----------|0-00-000----6-----|0--0--0-----------|0-00-000-------6-|
= x2

F|------------------|------------------|
C|------------------|------------------|
G|------------------|------------------|
C|0-----------------|0~--------------1/|

  SSPSSPSSPSSPSSPSSPSSPSSP SSPSSPSSPSSPSSPSSPSP SP SP S
F|--7--7--7--7--7--7--7--7|--7--7--7--7--7--7--------------|
C|------------------------|-------------------1--4--3------|
G|-5--5--5--5--5--5--5--5-|-5--5--5--5--5--5---------------|
C|0--0--0--0--0--0--0--0--|0--0--0--0--0--0--1--4--3--0----|

  S SPSPS SPSPS SPSP S    S SPSPS SPSPS SPSPS    S SPSPS SPSPS SPSP S SS SS S
F|---6-7---8-7---6-7-----|---6-7---8-7---6-7----|---6-7---8-7---6-7-----------|
C|-----------------------|----------------------|-----------------------------|
G|--5-5---5-5---5-5------|--5-5---5-5---5-5-----|--5-5---5-5---5-5------------|
C|0-----0-----0------0~--|0-----0-----0-----1/--|0-----0-----0------1-x4-x3-0-|

  S SPSP S SPSP S SPSP S   S SPSP S SPSP S SPSP S
F|---6-7----8-7----6-7----|---6-7----8-7----6-7----|
C|---5-5----5-5----5-5----|---5-5----5-5----5-5----|
G|0-5-5--0-5-5--0-5-5--0~-|0-5-5--0-5-5--0-5-5-----|
C|0-0-0--0-0-0--0-0-0--0~-|0-0-0--0-0-0--0-0-0--1/-|

  S SPSP S SPSP S SPSP S   S SPSP S SPSP S SPSP S SS SS S
F|---6-7----8-7----6-7----|---6-7----8-7----6-7---------------|
C|---5-5----5-5----5-5----|---5-5----5-5----5-5-7-x10x9-------|
G|0-5-5--0-5-5--0-5-5--0~-|0-5-5--0-5-5--0-5-5--6-x9-x8-5\----|
C|0-0-0--0-0-0--0-0-0--0~-|0-0-0--0-0-0--0-0-0------------0~--|
Добавлено: 15.08.2013
Другие материалы по этой песне:
  • Аккорды и текст

Страница создана 15.08.2013
http://primanota.ru/misc-unsigned-bands/glory-for-a-dead-man-welcome-to-war-chords.htm
Привет, Гость.
Предлагаем пройти революционный курс по гитаре.
Подарок от PrimaNota.Ru, забирай!