PrimaNota.ru - самый крупный в мире бесплатный архив песенных текстов, аккордов, табулатур и нот


Misc Unsigned Bands - Hey There Delilah - The Baseballs - бас-таба

Регистрация Запомнить меня
Войти через:  Facebook Google Twitter Vk Yandex Mail.ru

Misc Unsigned Bands - Hey There Delilah - The Baseballs - бас-таба

Печатать
Просмотров: 82
Уроки эстрадного вокала в Санкт-Петербурге
Hey There Delilah
This song originally recorded by Plain White Ts this version by
The German Rock n Roll band The Baseballs from their Album Strike
The Baseballs Upright bassist: Kiaas Wendling. Tab by bass50611
Great track, much better than the original version.
Any comments its bass254@btinternet.com

Verse:                                                                  (PLAY THIS x2)
G---------------------------------------6------------------6-------------|
D------------6--6-6-----------6-6------6------------------6-6---9--------|
A---7--7-7-9--6--6-9-7--7-7-9--6--7-6-4----------7---9---4-----9-----6---|
E----7--7-------------7--7-----------------9-7-5---7----------7---7-9----|

Chorus:
G------------------------------------------------------------------------|
D------------------------------------------------------------------------|
A-7--7-7-6-4--4-4-6-7--7-7-6-4-----6-7--7-7-6-4--4-4-6-7--7-7-6-4--4-4-6-|
E--7--7-----4--4-----7--7-----4-5-7---7--7-----4--4-----7--7-----4--4----|

G------------------------------------------------------------------------|
D------------------------------------------------------------------------|
A-7--7-7-6-4--4-4-6-7--7-7-6-4-----6-7--7-7-6-4--4-4-6-7--7-7-6-4--4-4-6-|
E--7--7-----4--4-----7--7-----4-5-7---7--7-----4--4-----7--7-----4--4----|

Repeat Verse and Chorus:

Bridge:
G-------------------------------------------|
D---7--7---9--9---11---11---11---11---9-8---|
A----7--7---9--9----11---11---11------------|
E-------------------------------------------|

G------------------------------------------|
D---7--7---9--9---11---11---11---11--------|
A----7--7---9--9----11---11---11-----------|
E------------------------------------9-7---|

G------------------------------------------------------------|
D------7-------9--------11----11---11-----9--9--9--9---------|
A-----7--7----9--9----11---11---11---11----9--9--9-------6---|
E---5-------7-------9---------------------------------7-9----|

Verse 3:
G---------------------------------------6------------------6---------------|
D------------6--6-6-----------6-6------6------------------6----------------|
A---7--7-7-9--6--6-9-7--7-7-9--6--7-6-4----------7---9---4---------7---9---|
E----7--7-------------7--7-----------------9-7-5---7---------9-7-5---7-----|
                          .      .      .
G-----6----------------6---------------------------------|
D----6----------------6-6--------------------------------|
A---4--------7---9---4-----------------------------------|
E------9-7-5---7----------7------7------7----7-7-7-7-7---|

Final Chorus:
G------------------------------------------------------------------------|
D------------------------------------------------------------------------|
A-7--7-7-6-4--4-4-6-7--7-7-6-4-----6-7--7-7-6-4--4-4-6-7--7-7-6-4--4-4-6-|
E--7--7-----4--4-----7--7-----4-5-7---7--7-----4--4-----7--7-----4--4----|

G--------------------------------------------------------------------------|
D--------------------------------------------------------------------------|
A-7--7-7-6-4--4-4-6-7--7-7-6-4-----6-7--7-7-6-4--4-4-6-7--7-7-6-4--4-4-6-7-|
E--7--7-----4--4-----7--7-----4-5-7---7--7-----4--4-----7--7-----4--4------|
Добавлено: 09.10.2013
Другие материалы по этой песне:
  • Аккорды и текст

Страница создана 09.10.2013
http://primanota.ru/misc-unsigned-bands/hey-there-delilah-the-baseballs-chords.htm
Привет, Гость.
Предлагаем пройти революционный курс по гитаре.
Подарок от PrimaNota.Ru, забирай!