PrimaNota.ru - самый крупный в мире бесплатный архив песенных текстов, аккордов, табулатур и нот


Misc Unsigned Bands - Greentree - Who I Am - бас-таба

Регистрация Запомнить меня
Войти через:  Facebook Google Twitter Vk Yandex Mail.ru

Misc Unsigned Bands - Greentree - Who I Am - бас-таба

Печатать
Просмотров: 47
Tabbed By : Andrew (Bassist From GreenTree)
e-mail: FleurTreeGT@yahoo.ca

Tuning:EADG

Bass Comes In at 1:47

G|---------------------------------------------------------------------------|
D|---------------------------------------------------------------------------|
A|-------------------0--------0--------0--------0----------------------------|
E|0--------0--------0--------0--------0-------0----------0--------0----------|

G|--------------------------------------------------------------------------|
D|--------------------------------------------------------------------------|
A|--------------------------------------------------------------------------|
E|0--------0--------0-------0--------0-------0-------0--------0-------------|

G|-------------------------------------------|
D|-------------------------------------------|
A|-------------------------------------------|
E|00000000-----------------------------------|

Verse
G|--------------------------------------------------------------------------|
D|---------------------------------1414141414141414-------------------------|
A|--------------------------------------------------------------------------|
E|5555555555555555/1212121212121212-----------------------------------------|

G|--------------------------------------------------------------------------|
D|---------------------------------1414141414141414-------------------------|
A|--------------------------------------------------------------------------|
E|5555555555555555/1212121212121212-----------------------------------------|

G|--------------------------------------------------------------------------|
D|---------------------------------1414141414141414-------------------------|
A|--------------------------------------------------------------------------|
E|5555555555555555/1212121212121212-----------------------------------------|

G|--------------------------------------------------------------------------|
D|---------------------------------1414141414141414-------------------------|
A|--------------------------------------------------------------------------|
E|5555555555555555/1212121212121212-----------------------------------------|

G|--------------------------------------------------------------------------|
D|--------------------------------------------------------------------------|
A|----------------7-7-7777-7777-7777-7-7------------------------------------|
E|5555555555555555----------------------777777777777-9999999999999999-------|

G|--------------------------------------------------------------------------|
D|--------------------------------------------------------------------------|
A|--------------------------------------------------------------------------|
E|555555-7-7----------------------------------------------------------------|




| /  slide up
| \  slide down
| h  hammer-on
| p  pull-off
| ~  vibrato
| +  harmonic
| x  Mute note
===============================================================================
Добавлено: 20.07.2013
Другие материалы по этой песне:
  • Аккорды и текст

Страница создана 20.07.2013
http://primanota.ru/misc-unsigned-bands/greentree-who-i-am-chords.htm
Привет, Гость.
Предлагаем пройти революционный курс по гитаре.
Подарок от PrimaNota.Ru, забирай!