PrimaNota.ru - самый крупный в мире бесплатный архив песенных текстов, аккордов, табулатур и нот


Misc Unsigned Bands - Greentree - No Words - бас-таба

Регистрация Запомнить меня
Войти через:  Facebook Google Twitter Vk Yandex Mail.ru

Misc Unsigned Bands - Greentree - No Words - бас-таба

Печатать
Просмотров: 42
Tabbed By :Andrew Fleury (Bassist from GreenTree)
e-mail: FleurTreeGT@yahoo.ca

Tuning: Standard EADG

Intro

G|--------------------------------------------------------------------------|
D|--------------------------------------------------------------------------|
A|000-000-000888-----000-000-000888-----------------------------------------|
E|--------------88888--------------88888------------------------------------|

Verse
G|--------------------------------------------------------------------------|
D|--------------------------------------------------------------------------|
A|-------8-8-----------8-8-----------8-8-----------8-8----------------------|
E|5-5-5-5---8-8-5-5-5-5---8-8-5-5-5-5---8-8-5-5-5-5---8-8-------------------|

Chorus
G|--------------------------------------------------------------------------|
D|--------------------------------------------------------------------------|
A|88888888-00000000-88888888-------------88888888-00000000-88888888---------|
E|--------------------------8888/15151515--------------------------333------|

Back To Intro

G|--------------------------------------------------------------------------|
D|--------------------------------------------------------------------------|
A|000-000-000888-----000-000-000888-----------------------------------------|
E|--------------88888--------------88888------------------------------------|

Verse
G|--------------------------------------------------------------------------|
D|--------------------------------------------------------------------------|
A|-------8-8-----------8-8-----------8-8-----------8-8----------------------|
E|5-5-5-5---8-8-5-5-5-5---8-8-5-5-5-5---8-8-5-5-5-5---8-8-------------------|

Chorus
G|--------------------------------------------------------------------------|
D|--------------------------------------------------------------------------|
A|88888888-00000000-88888888-------------88888888-00000000-88888888---------|
E|--------------------------8888/15151515--------------------------33333333-|

Bridge
G|--------------------------------------------------------------------------|
D|--------------------------------------------------------------------------|
A|--------------------------------------------------------------------------|
E|11111111-555-88888-11111111-555-88888-11111111-555-88888------------------|

G|--------------------------------------------------------------------------|
D|--------------------------------------------------------------------------|
A|--------------------------------------------------------------------------|
E|11111111-3333333333333----------------------------------------------------|


Chorus
G|--------------------------------------------------------------------------|
D|--------------------------------------------------------------------------|
A|20\88888888-00000000-88888888-------------88888888-00000000-88888888------|
E|-----------------------------8888/15151515--------------------------333---|

| /  slide up
| \  slide down
| h  hammer-on
| p  pull-off
| ~  vibrato
| +  harmonic
| x  Mute note
============================================================================
Добавлено: 25.06.2013
Другие материалы по этой песне:
  • Аккорды и текст

Страница создана 25.06.2013
http://primanota.ru/misc-unsigned-bands/greentree-no-words-chords.htm
Привет, Гость.
Предлагаем пройти революционный курс по гитаре.
Подарок от PrimaNota.Ru, забирай!