PrimaNota.ru - самый крупный в мире бесплатный архив песенных текстов, аккордов, табулатур и нот


Misc Unsigned Bands - Greentree - The Night - бас-таба, видео

Регистрация Запомнить меня
Войти через:  Facebook Google Twitter Vk Yandex Mail.ru

Misc Unsigned Bands - Greentree - The Night - бас-таба, видео

Печатать
Просмотров: 88
Уроки эстрадного вокала в Санкт-Петербурге
Tabbed By :Andrew (Bassist From GreenTree)
e-mail: FleurTreeGT@yahoo.ca

Tuning: EADG (Standard)

Intro

G|---------------------------------------------------------------------------|
D|---------------------------------------------------------------------------|
A|777777777777777-555555555555555-333333333333333-3-3-5-5--------------------|
E|---------------------------------------------------------------------------|

G|---------------------------------------------------------------------------|
D|---------------------------------------------------------------------------|
A|777777777777777-555555555555555-333333333333333-3-3-5-5--------------------|
E|---------------------------------------------------------------------------|

Verse

G|---------------------------------------------------------------------------|
D|---------------------------------------------------------------------------|
A|7777777777777777-----------------------------------------------------------|
E|----------------8888888888888888-3333333333333333-55555555-7777777-8-7-----|

G|----------------------------------------7----------|
D|----------------101010101010101010101010-10-9-7----|
A|7777777777777777-----------------------------------|
E|---------------------------------------------------|

G|---------------------------------------------------|
D|---5555555555555555-77777777-999999-10-9-----------|
A|---------------------------------------------------|
E|---------------------------------------------------|

Pre Chorus

G|---------------------------------------------------------------------------|
D|---------------------------------12\---------------------------------------|
A|---------------------------------------------------------------------------|
E|8888888888888888-1010101010101010------------------------------------------|

Chorus

G|---------------------------------------------------------------------------|
D|---------------------------------------------------------------------------|
A|777777777777777-555555555555555-333333333333333-3-3-5-5--------------------|
E|---------------------------------------------------------------------------|

G|---------------------------------------------------------------------------|
D|--------------------------------------------------------7------------------|
A|777777777777777-555555555555555-333333333333333-3-3-5-5--------------------|
E|-------------------------------------------------------5-------------------|
Verse

G|---------------------------------------------------------------------------|
D|---------------------------------------------------------------------------|
A|7777777777777777-----------------------------------------------------------|
E|----------------8888888888888888-3333333333333333-555555555-7777777-8-7----|

G|----------------------------------------7----------|
D|----------------101010101010101010101010-10-9-7----|
A|7777777777777777-----------------------------------|
E|---------------------------------------------------|

G|---------------------------------------------------|
D|---5555555555555555-77777777-999999-10-9-----------|
A|---------------------------------------------------|
E|---------------------------------------------------|

Pre Chorus

G|---------------------------------------------------------------------------|
D|---------------------------------12\---------------------------------------|
A|---------------------------------------------------------------------------|
E|8888888888888888-1010101010101010------------------------------------------|

Chorus

G|---------------------------------------------------------------------------|
D|---------------------------------------------------------------------------|
A|777777777777777-555555555555555-333333333333333-3-3-5-5--------------------|
E|---------------------------------------------------------------------------|

G|---------------------------------------------------------------------------|
D|---------------------------------------------------------------------------|
A|777777777777777-555555555555555-333333333333333-3-3-5-5--------------------|
E|---------------------------------------------------------------------------|

Bridge

G|---------------------------------------------------------------------------|
D|---------------------------------------------------------------------------|
A|3333333333333333-5555555555555555------------------------------------------|
E|---------------------------------00000000000000000000000000000000----------|

G|-----------------------------------------------------------------------------|
D|-----------------------------------------------------------------------------|
A|3333333333333333-5555555555555555--------------------------------------------|
E|---------------------------------55555555-77777777-88888888-1010101010101010-|

Guitar Solo

G|---------------------------------------------------------------------------|
D|---------------------------------------------------------------------------|
A|7777777777777777-----------------------------------------------------------|
E|----------------8888888888888888-3333333333333333-55555555-7777777-8-7-----|


G|---------------------------------------------------------------------------|
D|---------------------------------------------------------------------------|
A|7777777777777777-----------------------------------------------------------|
E|----------------8888888888888888-3333333333333333-55555555-7777777-8-7-----|

G|---------------------------------------------------------------------------|
D|---------------------------------------------------------------------------|
A|---------------------------------------------------------------------------|
E|8----10----5----7----------------------------------------------------------|

Ending

G|---------------------------------------------------------------------------|
D|---------------------------------------------------------------------------|
A|777777777777777-555555555555555-333333333333333-3-3-5-5--------------------|
E|---------------------------------------------------------------------------|

G|---------------------------------------------------------------------------|
D|---------------------------------------------------------------------------|
A|777777777777777-555555555555555-333333333333333-3-3-5-5--------------------|
E|---------------------------------------------------------------------------|

G|---------------------------------------------------------------------------|
D|---------------------------------------------------------------------------|
A|777777777777777-555555555555555-3333333333333333-3-3-5-5-------------------|
E|---------------------------------------------------------------------------|

G|-----------------------------------------------------------------------------|
D|-----------------------------------------------------------------------------|
A|777777777777777-555555555555555-333333333333333-3-3-5-5----------------------|
E|-------------------------------------------------------0---------------------|
Добавлено: 22.11.2013
Другие материалы по этой песне:
  • Аккорды и текст

Страница создана 08.08.2013
http://primanota.ru/misc-unsigned-bands/greentree-the-night-chords.htm
Привет, Гость.
Предлагаем пройти революционный курс по гитаре.
Подарок от PrimaNota.Ru, забирай!