PrimaNota.ru - самый крупный в мире бесплатный архив песенных текстов, аккордов, табулатур и нот


Misc Unsigned Bands - Egyptian Hip Hop - Wild Human Child - бас-таба, видео

Регистрация Запомнить меня
Войти через:  Facebook Google Twitter Vk Yandex Mail.ru

Misc Unsigned Bands - Egyptian Hip Hop - Wild Human Child - бас-таба, видео

Печатать
Просмотров: 43
-------------------------------------------------------------------------------
		 Wild Human Child - Egyptian Hip Hop
-------------------------------------------------------------------------------

Tabbed By : Clowesy
e-mail: eleanorclowes@hotmail.com

Tuning: Standard

1st riff (Do this 4 times)(0:00 to 0:35)
G|---------------------------------------------------------------------------|
D|2/4--6\4--2-4-----------------2/4--6-4-2/4---------------------------------|
A|---------------------------------------------------------------------------|
E|--------------2-2-2-2-2-2-2-2--------------2-2----2-2----------------------|

2nd riff (Do this 7 times)(0:36 to 0:49)
G|---------------------------------------------------------------------------|
D|2-2-4-2--------------------------------------------------------------------|
A|-------4-------------------------------------------------------------------|
E|---------2-2-2-------------------------------------------------------------|
3rd riff (Do this just once after 2nd riff)
G|---------------------------------------------------------------------------|
D|2-2-4-2--4-----------------------------------------------------------------|
A|-------4-------------------------------------------------------------------|
E|--------2--2---------------------------------------------------------------|

Play 2nd riff 3 times followed by the 3rd riff once.

Next play 2nd riff once then 3rd riff. (x2)


4th riff (1:06 to 1:22) Do this 4 times)
G|---------------------------------------------------------------------------|
D|----------------2-2--------------------------------------------------------|
A|2-2/4-----2-2/4------------------------------------------------------------|
E|------5-5------------------------------------------------------------------|

The play 2nd riff once followed by 3rd riff. (x4)(1:23 to 1:38)

G|---------------------------------------------------------------------------|
D|2 hold---------------------------------------------------------------------|
A|---------------------------------------------------------------------------|
E|---------------------------------------------------------------------------|
5th riff (Do this 4 times) (1:46 to 2:18)
G|---------------------------------------------------------------------------|
D|2-4-4--4--4--4--4--4-7-6---------------------------------------------------|
A|-------------------------4--4--4--4-2-4------------------------------------|
E|-----------------------------------------2---------------------------------|

6th Riff (2:19 to 2:33)
G|---------------------------------------------------------------------------|
D|2-4-4 pause-4-/7-6----------7-6-0--0-0-0 pause-7-6-2--2-2-2--2-4---4-------|
A|-------------------2--2-2-2 pause--------------------------------4---------|
E|---------------------------------------------------------------------------|
7th riff (2:34 to 2:49)
G|---------------------------------------------------------------------------|
D|2-4-4--4-4-4-4-4-/7-6--------------7-6-0--0-0-0-0-0-7-6-2--2-2-2-4---4-----|
A|----------------------2--2-2-2-2-2---------------------------------4-------|
E|---------------------------------------------------------------------------|

8th riff (2:50 to 3:04)
G|---------------------------------------------------------------------------|
D|2-4---/4-4-4-4-4-7-6--------------7-6-0--0-0-0-0-0--7-6-2--2-2-2-2-4---4---|
A|----------------------2--2-2-2-2-2----------------------------------4------|
E|----2----------------------------------------------------------------------|

Then  play 2nd riff once then 3rd riff once 

9th riff
G|---------------------------------------------------------------------------|
D|7-7-9-7---------7-7-9-7-----9----------------------------------------------|
A|--------9---------------9--------------------------------------------------|
E|----------7-7-7-----------7---9--------------------------------------------|
Then  play 2nd riff once then 3rd riff once 
Then play 9th riff once
2nd riff x1 3rd riff x1
9th riff x1
2nd riff x1 3rd riff x1
9th riff x1

10th riff
G|---------------------------------------------------------------------------|
D|2-2-4-2-----0-2------------------------------------------------------------|
A|--------4------------------------------------------------------------------|
E|----------2----------------------------------------------------------------|

10th riff x1

11th riff
G|---------------------------------------------------------------------------|
D|7-7-9-7----6-7-------------------------------------------------------------|
A|--------9------------------------------------------------------------------|
E|----------7----------------------------------------------------------------|

11th riff x1

10th riff x2
11th riff x2
10th riff x2
11th riff x2
10th riff x2
11th riff x2

Finally, finish with:

G|---------------------------------------------------------------------------|
D|2-4-4 hold-----------------------------------------------------------------|
A|---------------------------------------------------------------------------|
E|---------------------------------------------------------------------------|





| /  slide up
| \  slide down
| h  hammer-on
| p  pull-off
| ~  vibrato
| +  harmonic
| x  Mute note
Добавлено: 03.09.2013
Другие материалы по этой песне:
  • Аккорды и текст

Страница создана 03.09.2013
http://primanota.ru/misc-unsigned-bands/egyptian-hip-hop-wild-human-child-chords.htm
Привет, Гость.
Предлагаем пройти революционный курс по гитаре.
Подарок от PrimaNota.Ru, забирай!