PrimaNota.ru - самый крупный в мире бесплатный архив песенных текстов, аккордов, табулатур и нот


Misc Unsigned Bands - Farewell - First One On The Blog - бас-таба, видео

Регистрация Запомнить меня
Войти через:  Facebook Google Twitter Vk Yandex Mail.ru

Misc Unsigned Bands - Farewell - First One On The Blog - бас-таба, видео

Печатать
Просмотров: 49
Farewell
First One On The Blog
Drop D

Intro
G|----------------------------------------------|
D|----------------------------------------------|
A|1111-111-1111-111-1---------------------------|
D|-------------------3-1111-111-1111-111-1-3----|

Verse
G|-----------------------------------------------------------------|
D|-----------------------------------------------------------------|
A|1111111111111111111111111111188866666666666666666666666666666----|x2
D|-----------------------------------------------------------------|

Pre-chorus
G|------------------------------------------------------------------|
D|------------------------------------------------------------------|
A|------------------------------------------------------------------|
D|33333333333333330000000011111111-3333333333333333000000001--------|

Chorus
G|----------------------------------------------|
D|----------------------------------------------|
A|1111-111-1111-111-1---------------------------|
D|-------------------3-1111-111-1111-111-1-3----|

Verse
G|-----------------------------------------------------------------|
D|-----------------------------------------------------------------|
A|1111111111111111111111111111188866666666666666666666666666666----|x2
D|-----------------------------------------------------------------|

Pre-chorus
G|------------------------------------------------------------------|
D|------------------------------------------------------------------|
A|------------------------------------------------------------------|
D|33333333333333330000000011111111-3333333333333333000000001--------|

Chorus
G|----------------------------------------------|
D|----------------------------------------------|
A|1111-111-1111-111-1---------------------------|x2
D|-------------------3-1111-111-1111-111-1-3----|

Bridge
G|--------------------------------------------------------|
D|--------------------------------------------------------|
A|--------------------------------------------------------|
D|55555555333333331111111111111113-55555555333333331------|

Breakdown Chorus Thing
G|---------------------------------------------------------------|
D|---------------------------------------------------------------|
A|11-1111-1---------------1111--1--------------------------------|
D|---------3--1-1111-1-3---------3-1111-111-1111-111-1-3---------|

Outro
G|---------------------------------------------------------------------------|
D|---------------------------------------------------------------------------|
A|1-11-15-55-56-666666666-11-11-15-55-56666666666----------------1-11-5-55-6-|
D|------------------------------------------------5555555533333333-----------|

Outro Cont.
G|-------------|
D|-------------|
A|1~-----------|
D|--0~1~-------|

This band isnt in the database so heres their myspace cuz im pretty sure they dont have 
official site.  http://www.myspace.com/farewell
Добавлено: 02.11.2013
Другие материалы по этой песне:
  • Аккорды и текст

Страница создана 02.11.2013
http://primanota.ru/misc-unsigned-bands/farewell-first-one-on-the-blog-chords.htm
Привет, Гость.
Предлагаем пройти революционный курс по гитаре.
Подарок от PrimaNota.Ru, забирай!