PrimaNota.ru - самый крупный в мире бесплатный архив песенных текстов, аккордов, табулатур и нот


Misc Unsigned Bands - F-zero X - Mute City - бас-таба

Регистрация Запомнить меня
Войти через:  Facebook Google Twitter Vk Yandex Mail.ru

Misc Unsigned Bands - F-zero X - Mute City - бас-таба

Печатать
Просмотров: 42
intro:

guitar plays

bass comes in (around 0:06) with

F#------------------------------------|
C#------------------------------------|
G#----4-4-4-4-4-4-4-4-2-2-2-2-2-2-2-2-|
D#------------------------------------|

then

F#---------------------------------------------------------------------------|
C#---------------------------------------------------------------------------|
G#----4-4-4-4-4-4-4-4----------------4-4-4-4-4-4-4-4-------------------------|
D#-------------------4-4-4-4-4-4-4-4----------------4-4-4-4-4-4-4-4----------|

F#---------------------------------------------------------------------------|
C#---------------------------------------------------------------------------|
G#----5-5-5-5-5-5-5-5----------------5-5-5-5-5-5-5-5-------------------------|
D#-------------------5-5-5-5-5-5-5-5----------------5-5-5-5-5-5-5-5----------|

F#---------------------------------------------------------------------------|
C#---------------------------------------------------------------------------|
G#----4-4-4-4-4-4-4-4----------------4-4-4-4-4-4-4-4-------------------------|
D#-------------------4-4-4-4-4-4-4-4----------------4-4-4-4-4-4-4-4----------|

F#---------------------------------------------------------------------------|
C#---------------------------------------------------------------------------|
G#----5-5-5-5-5-5-5-5----------------2-2-2-2-2-2-2-2-3-3-3-3-3-3-3-3---------|
D#-------------------5-5-5-5-5-5-5-5-----------------------------------------|

F#---------------------------------------------------------------------------|
C#---------------------------------------------------------------------------|
G#----4-4-4-4-4-4-4-4-----------------4-4-4-4-4-4-4-4------------------------|
D#--------------------4-4-4-4-4-4-4-4-----------------4-4-4-4-4-4-4-4-4-4----|

F#------------------------------------------------------------------------|
C#------------------------------------------------------------------------|
G#----3-3-3-3-3-3-3-3---3-3-3-3-3-3-3-3---3-3-3-3-3-3-3-3-3-3-3-3-3-3-3-3-|
D#--------------------3-----------------3---------------------------------|

F#------------------------------------5----6-|
C#-----------------------5-5--2-2------------|   go back to intro
G#--------------3-3-3-3------------3---------|
D#----0-0--2-2-------------------------------|
Добавлено: 04.01.2014
Другие материалы по этой песне:
  • Аккорды и текст

Страница создана 04.01.2014
http://primanota.ru/misc-unsigned-bands/f-zero-x-mute-city-chords.htm
Привет, Гость.
Предлагаем пройти революционный курс по гитаре.
Подарок от PrimaNota.Ru, забирай!