PrimaNota.ru - самый крупный в мире бесплатный архив песенных текстов, аккордов, табулатур и нот


Misc Unsigned Bands - Enzo Draghi - Lupin Iii - Italian Opening - бас-таба

Регистрация Запомнить меня
Войти через:  Facebook Google Twitter Vk Yandex Mail.ru

Misc Unsigned Bands - Enzo Draghi - Lupin Iii - Italian Opening - бас-таба

Печатать
Просмотров: 44
-----------------------------------------------------------------------------------------------
Artist - Enzo Draghi
Song   - Lupin III - italian opening
Album  - ...
Tabbed - Jakob Jugovic
Mail   - jakobjugovic@gmail.com
-----------------------------------------------------------------------------------------------

h - hammer on
/ - slide upwards
\ - slide downwards
X - ghost note
S - slapping 
P - popping
~ - vibrato
o - 1/4 (timescale)


  INTRO:

    0 . . .  
G |---------|
D |---------|
A |---6-8-9-|
E |---------|
B |---------|

    0 . . . 0 . . . 0 . . . 0 . . . 0 . . . 0 . . . 0 . . . 0 . . .
G |-----------------------------------------------------------------|
D |-----------------------------------------------------------------|
A |-6-------------------------6-4---2-------------------------2-1---|
E |-----------------------------------------------------------------|
B |-----------------------------------------------------------------|

    0 . . . 0 . . . 0 . . . 0 . . . 0 . . . 0 . . . 0 . . . 0 . . .
G |-----------------------------------------------------------------|
D |-----------------------------------------------------------------|
A |-----------------2-------4-----6---------------------6-----------|
E |-4---------------------------------------------------------------|
B |-----------------------------------------------------------------|

  VERSO:

    0 . . . 0 . . . 0 . . . 0 . . . 0 . . . 0 . . . 0 . . . 0 . . .
G |-----------------------------------------------------------------|
D |-----------8-----------------8-\---------6-------------------6---|
A |-6---6-----------6---6-----------4---4-----------4---4-----------|
E |-----------------------------------------------------------------|
B |-----------------------------------------------------------------|

    0 . . . 0 . . . 0 . . . 0 . . . 0 . . . 0 . . . 0 . . . 0 . . .
G |-----------------------------------------------------------------|
D |---------4-------------------4-----------3-----------------------|
A |-2---2-----------2---2-----------1---1---------1---------1---4---|
E |-----------------------------------------------------------------|
B |-----------------------------------------------------------------|

    0 . . . 0 . . . 0 . . . 0 . . . 0 . . . 0 . . . 0 . . . 0 . . .
G |-----------------------------------------------------------------|
D |---------8--------------------------------------------------(4)--|
A |-6---6-----------6---6-------------------4-------------------4---|
E |-----------------------------2---2---2-----------2---2-----------|
B |-----------------------------------------------------------------|

  PONTE:

    0 . . . 0 . . . 0 . . . 0 . . . 0 . . . 0 . . . 0 . . . 0 . . .
G |-------------------------------------3----------------------------|
D |-------------------------1----------------------------------------|
A |-2-----1---------------------2---1-------1---------1-1-1-1---4----|
E |-------------4----------------------------------------------------|
B |-------------------4----------------------------------------------|

  RITORNELLO:

    0 . . . 0 . . . 0 . . . 0 . . . 0 . . . 0 . . . 0 . . . 0 . . .
G |-------------------------------------3---------3-----------------|
D |-----4---------4-------------------------------------------------|
A |---------------------------------1-------1---1-------------------|
E |-2-------2---2---------------------------------------------------|
B |-----------------------------------------------------------------|

    0 . . . 0 . . . 0 . . . 0 . . . 0 . . . 0 . . . 0 . . . 0 . . .
G |-----4---------4-------------------------------------------------|
D |-------------------------------------3-----1---------------------|
A |-2-------2---2-------------------2/4-------------4-----2---------|
E |-----------------------------------------------------------------|
B |-----------------------------------------------------------------|

    0 . . . 0 . . . 0 . . . 0 . . . 0 . . . 0 . . . 0 . . . 0 . . .
G |-------------------------------------3---------3-----------------|
D |-----4---------4-------------------------------------------------|
A |---------------------------------1-------1---1-------------------|
E |-2-------2---2---------------------------------------------------|
B |-----------------------------------------------------------------|

    0 . . . 0 . . . 0 . . . 0 . . . 0 . . . 0 . . . 0 . . . 0 . . .
G |-----4---------4---------------------6-------6-------------------|
D |-----------------------------------------------------------------|
A |-2-------2---2-------------------4-------4------4----------------|
E |-----------------------------------------------------------------|
B |-----------------------------------------------------------------|

    0 . . . 0 . . . 0 . . . 0 . . . 0 . . . 0 . . . 0 . . . 0 . . .
G |-------------------------------------3---------3-----------------|
D |-----4---------4-------------------------------------------------|
A |---------------------------------1-------1---1-------------------|
E |-2-------2---2---------------------------------------------------|
B |-----------------------------------------------------------------|

    0 . . . 0 . . . 0 . . . 0 . . . 0 . . . 0 . . . 0 . . . 0 . . .
G |-----4---------6---------6---------------------------------------|
D |---------------------------6---------------------------------4---|
A |-2-------2---2---------------4-----------------------------------|
E |---------------------------------2-------------------------2---2-|
B |-----------------------------------------------------------------|

    0 . . . 0 . . . 0 . . . 0 . . . 0 . . . 0 . . . 0 . . . 0 . . .
G |-----------------------------------------------------------------|
D |-----------------------------2---0-------------------------0-0-4-|
A |-----------------------------------------------------------------|
E |-0-------------------------0---0-------------------------------2-|
B |-----------------------------------------------------------------|
Добавлено: 08.12.2013
Другие материалы по этой песне:
  • Аккорды и текст

Страница создана 08.12.2013
http://primanota.ru/misc-unsigned-bands/enzo-draghi-lupin-iii-italian-opening-chords.htm
Привет, Гость.
Предлагаем пройти революционный курс по гитаре.
Подарок от PrimaNota.Ru, забирай!