PrimaNota.ru - самый крупный в мире бесплатный архив песенных текстов, аккордов, табулатур и нот


Misc Unsigned Bands - Eye For An Eye - Seek And Destroy - бас-таба, видео

Регистрация Запомнить меня
Войти через:  Facebook Google Twitter Vk Yandex Mail.ru

Misc Unsigned Bands - Eye For An Eye - Seek And Destroy - бас-таба, видео

Печатать
Просмотров: 45
----------------------------------------------------------------------------
			     Seek and Destroy - Eye for An Eye
----------------------------------------------------------------------------

Tabbed By : Jasper7979 

Tuning: e,a,d,g

Intro :
  1+2+3+4+1+2+3+4+1+2+3+4+1+2+3+4+
G|--------------------------------|
D|--------------------------------|
A|2x-2x-2x--0-2-3-2x-2x-2x--3-2-0-|
E|--------------------------------|

  1+2+3+4+1+2+3+4+1+2+3+4+1+2+3+4+
G|--------------------------------|
D|--------------------------------|
A|2x-2x-2x2 / 12/-2x-2x-2x2x2x2x2x|
E|--------^-----------------------|
          | Up to 12 &
          | back down to 2 

  1+2+3+4+1+2+3+4+1+2+3+4+1+2+3+4+
G|--------------------------------|
D|--------------------------------|
A|2x-2x-2x--0-2-3-2x-2x-2x--3-2-0-|
E|--------------------------------|

  1+2+3+4+1+2+3+4+1+2+3+4+1+2+3+4+
G|--------------------------------|
D|--------------------------------|
A|2--2--2-2 / 12/-2--2--2-2 / 12--|
E|--------^-----------------------|
          | Up to 12 &
          | back down to 2 

  1+2+3+4+1+2+3+4+1+2+3+4+1+2+3+4+
G|--------------------------------|
D|--------------------------------|
A|2--2--2-2 / 12/-2--2--2-2 / 12--|
E|--------^-----------------------|
          | Up to 12 &
          | back down to 2 

  1+2+3+4+1+2+3+4+1+2+3+4+1+2+3+4+
G|--------------------------------|
D|--------------------------------|
A|2--2--2-2 / 12------------------|
E|--------^-----------------------|
          | Up and hold 12 
          |

 

Main:
3x
G|--4x------------4x------------4x------------4x----------|
D|----0-2-3-2-------0-2-----------0-2-3-2-----------------|
A|2x----------3-2x------3-2-0-2x----------3-2x-2-/ 12 / 2-|
E|--------------------------------------------------------|
1x
G|--4x------------4x------------4x------------4x----------|
D|----0-2-3-2-------0-2-----------0-2-3-2-----------------|
A|2x----------3-2x------3-2-0-2x----------3-2x-2-/ 12hold!|
E|--------------------------------------------------------|

G|--4x----4x----4x----------|
D|----0-----0-----0-2-3-2-0-|
A|2x----2x----2x------------|
E|--------------------------|

G|--4x----4x----4x----------|
D|----0-----0-----0-2-3-2-0-|
A|2x----2x----2x------------|
E|--------------------------|

G|----------------------------------------------------------------|
D|2-3-2-0-2-3-2-0-2-3-2-0-2-3-2-0-2-3-2-0-2-3-2-0-2-3-2-0-2-3-2-0-|
A|----------------------------------------------------------------|
E|----------------------------------------------------------------|
(Faster with every Note------------------------------------------>
3x
G|--4x------------4x------------4x------------4x----------|
D|----0-2-3-2-------0-2-----------0-2-3-2-----------------|
A|2x----------3-2x------3-2-0-2x----------3-2x-2-/ 12 / 2-|
E|--------------------------------------------------------|
1x
G|--4x------------4x------------4x------------4x----------|
D|----0-2-3-2-------0-2-----------0-2-3-2-----------------|
A|2x----------3-2x------3-2-0-2x----------3-2x-2-/ 12hold!|
E|--------------------------------------------------------|

Back to the Intro

  1+2+3+4+1+2+3+4+1+2+3+4+1+2+3+4+
G|--------------------------------|
D|--------------------------------|
A|2x-2x-2x--0-2-3-2x-2x-2x--3-2-0-|
E|--------------------------------|

  1+2+3+4+1+2+3+4+1+2+3+4+1+2+3+4+
G|--------------------------------|
D|--------------------------------|
A|2x-2x-2x2 / 12/-2x-2x-2x2x2x2x2x|
E|--------^-----------------------|
          | Up to 12 &
          | back down to 2 

  1+2+3+4+1+2+3+4+1+2+3+4+1+2+3+4+
G|--------------------------------|
D|--------------------------------|
A|2x-2x-2x--0-2-3-2x-2x-2x--3-2-0-|
E|--------------------------------|

  1+2+3+4+1+2+3+4+1+2+3+4+1+2+3+4+
G|--------------------------------|
D|--------------------------------|
A|2--2--2-2 / 12/-2--2--2-2 / 12--|
E|--------^-----------------------|
          | Up to 12 &
          | back down to 2 

  1+2+3+4+1+2+3+4+1+2+3+4+1+2+3+4+
G|--------------------------------|
D|--------------------------------|
A|2--2--2-2 / 12/-2--2--2-2 / 12--|
E|--------^-----------------------|
          | Up to 12 &
          | back down to 2 

  1+2+3+4+1+2+3+4+1+2+3+4+1+2+3+4+
G|--------------------------------|
D|--------------------------------|
A|2--2--2-2 / 12------------------|
E|--------^-----------------------|
          | Up and hold 12 
          |



Добавлено: 14.11.2013
Другие материалы по этой песне:
  • Аккорды и текст

Страница создана 14.11.2013
http://primanota.ru/misc-unsigned-bands/eye-for-an-eye-seek-and-destroy-chords.htm
Привет, Гость.
Предлагаем пройти революционный курс по гитаре.
Подарок от PrimaNota.Ru, забирай!