PrimaNota.ru - самый крупный в мире бесплатный архив песенных текстов, аккордов, табулатур и нот


Misc Unsigned Bands - Wayne Fontana - Something Keeps Calling Me Back - бас-таба

Регистрация Запомнить меня
Войти через:  Facebook Google Twitter Vk Yandex Mail.ru

Misc Unsigned Bands - Wayne Fontana - Something Keeps Calling Me Back - бас-таба

Печатать
Просмотров: 42
Something Keeps Calling Me Back
Track released as the 'B' side to Pamela Pamela in 1966 by Wayne Fontana. 
Revived for Wigan Pier's Northern Soul Scene in The mid seventies
Tab by bass50611. More or less as original except for the outro
But it does fit. Comments at bass254@btinternet.com 

Intro:           (Play This x3)
G|-3-0---3-0---3---3--1--1-2-
D|----3-0---3--------3--3----
A|---------------------------
E|---------------------------
                  .
G|-3---3--1-0-------
D|-----------3----3-
A|------------------
E|------------------

Verse 1:
G|-3---3--------3---3--------3---3--------3---3-------
D|--5-3--5-3-5---5-3--5-3-5---5-3--5-3-5---5-3--5-3---
A|--------------------------------------------------5-
E|----------------------------------------------------

G|------------------------------------------------------------------
D|--------0-0-0-0--1-1-1-1--3-3-3-3-------0-0-0-0--1-1-1-1--3-3-3-3-
A|-3-3-3-3-------------------------3-3-3-3--------------------------
E|------------------------------------------------------------------

Repeat Verse 1:

Verse 3:
G|-3---3--------3---3--------4---4--------4---4--------3---3-------
D|--5-3--5-3-5---5-3--5-3-5---6-4--6-4-6---6-4--6-4-6---5-3--5-3-5-
A|-----------------------------------------------------------------
E|-----------------------------------------------------------------

G|-3---3--------------------------------------------------
D|--5-3--5-3------------0-0-0-0--1-1-1-1--3-3-3-3---------
A|----------5---3-3-3-3---------------------------3-3-3-3-
E|--------------------------------------------------------

G|---------------------------
D|-0-0-0-0--1-1-1-1--3-3-3-3-
A|---------------------------
E|---------------------------

Instrumental:  (Play This x2)
G|-3-0---3-0---3---3--1--1-2-
D|----3-0---3--------3--3----
A|---------------------------
E|---------------------------
                  .
G|-3---3--1-0-------
D|-----------3----3-
A|------------------
E|------------------

Repeat Verse 1:

Repeat Verse 3:

Bridge:                (Play This x2)
G|----------------------------------
D|----------------------------------
A|-8-8-8-8-8-8-8-8--8-8-8-8-8-8-8-8-
E|----------------------------------

G|-10--10-8---8-9---10--10-8---8-9---10--10-8---8-9---10--10-8---8-9-
D|---10-----10--------10-----10--------10-----10--------10-----10----
A|-------------------------------------------------------------------
E|-------------------------------------------------------------------

G|-10--10-8---8-9-
D|---10-----10----
A|----------------
E|----------------

Outro:                (Repeat To Fade)
G|------------------------------------
D|-8----8-------------8----8----------
A|--10-8---10-8-10-----10-8---10-8-10-
E|------------------------------------


Добавлено: 27.08.2015
Другие материалы по этой песне:
  • Аккорды и текст

Страница создана 27.08.2015
http://primanota.ru/misc-unsigned-bands/wayne-fontana-something-keeps-calling-me-back-chords.htm
Привет, Гость.
Предлагаем пройти революционный курс по гитаре.
Подарок от PrimaNota.Ru, забирай!