PrimaNota.ru - самый крупный в мире бесплатный архив песенных текстов, аккордов, табулатур и нот


Misc Unsigned Bands - The Migil Five - Mockingbird Hill - бас-таба

Регистрация Запомнить меня
Войти через:  Facebook Google Twitter Vk Yandex Mail.ru

Misc Unsigned Bands - The Migil Five - Mockingbird Hill - бас-таба

Печатать
Просмотров: 102
Mockingbird Hill
This Version by The Migil Five in 1964 reached number 10 in the UK
Bass performance Lenny Blanche. Tab by bass50611. Welcome to my version
Of this great sixties song. Not exact but it does fit. Has more of a  
Shuffle beat tempo.  Comments is bass254@btinternet.com 

Intro:
G|--------------------------------------------------
D|----------------22-55-22-----44-77-44-------------
A|---22-55-22---33-----------55------------22-55-22-
E|-33------------------------------------33---------

Chorus:
G|------------------------------------------------------------------------
D|---------------------------22-55-22----22-55-22----44-77-44----44-77-44-
A|---22-55-22---22-55-22---33----------33----------55-----------55--------
E|-33---------33----------------------------------------------------------

G|---44-77-44----44-7-----------------------------------------------------
D|-55----------55------------------------------------22-55-22----22-55-22-
A|--------------------------22-55-22----22-55-22---33----------33---------
E|-------------------0-22-33----------33----------------------------------

G|----------------------------44-77-44----44-7------
D|---44-77-44----44-77-44---55----------55----------
A|-55----------55------------------------------3-22-
E|--------------------------------------------------

Verse:
G|-------------------------------------------------------------------------
D|----------------------------22-55-22----22-55-22----44-77-44----44-77-44-
A|---22-55-22----22-55-22---33----------33----------55----------55---------
E|-33----------33----------------------------------------------------------

G|---44-77-44----44-7-----------------------------------------------------
D|-55----------55------------------------------------22-55-22----22-55-22-
A|--------------------------22-55-22----22-55-22---33----------33---------
E|-------------------0-22-33----------33----------------------------------

G|----------------------------44-77-44----44-7------
D|---44-77-44----44-77-44---55----------55----------
A|-55----------55------------------------------3-22-
E|--------------------------------------------------

Repeat Verse & Chorus:

Sax Solo - Repeat Verse:

Outro Chorus:
G|-------------------------------------------------------------------------
D|----------------------------22-55-22----22-55-22----44-77-44----44-77-44-
A|---22-55-22----22-55-22---33----------33----------55----------55---------
E|-33----------33----------------------------------------------------------

G|---44-77-44----44-7-----------------------------------------------------
D|-55----------55------------------------------------22-55-22----22-55-22-
A|--------------------------22-55-22----22-55-22---33----------33---------
E|-------------------0-22-33----------33----------------------------------

                           .     .  (Bass Chord)
G|--------------------------------------
D|---44-77-44----44-77-44---5---------5-
A|-55----------55----------------3------
E|------------------------------------3-

Добавлено: 21.08.2015
Другие материалы по этой песне:
  • Аккорды и текст

Страница создана 21.08.2015
http://primanota.ru/misc-unsigned-bands/migil-five-mockingbird-hill-chords.htm
Привет, Гость.
Предлагаем пройти революционный курс по гитаре.
Подарок от PrimaNota.Ru, забирай!