PrimaNota.ru - самый крупный в мире бесплатный архив песенных текстов, аккордов, табулатур и нот


Misc Unsigned Bands - David Son Of Jesse - I Will Sing Of The Mercies - таба, видео

Регистрация Запомнить меня
Войти через:  Facebook Google Twitter Vk Yandex Mail.ru

Misc Unsigned Bands - David Son Of Jesse - I Will Sing Of The Mercies - таба, видео

Печатать
Просмотров: 56
Уроки эстрадного вокала в Санкт-Петербурге
-------------------------------------------------------------------------------
                             i will sing of the mercies - Band Name
-------------------------------------------------------------------------------
Tabbed by:
E-mail:
key of C
Tuning: E-A-D-G-B-e

e|-----------------------------------------------------------------------------|
B|----------------------------------------1------------------------------------|
G|------------------------------------0-----0----------------0-----------------|
D|----0----2---2--2---2--0----2--3------------2--3----2---0------3----2------0-|
A|3------------3---------0--------------------3--------------------------3-----|
E|--------------------------------------------------------1--------------------|

  i will sing of the mercies of the Lord forever I will sing I will sing I will

e|---------------------------------------------------------------------------|
B|---------------------------------1-----------------------------------------|
G|-----------------------------0-----0-----------------0--0----0-------------|
D|--2---2--2----2--0---2--3------------2--3---2----0--------------3---2--0---|
A|--3---3----------0-------------------3-----------------------3-------------|
E|---------------------------------------------------------------------------|

  sing of the mercies of the Lord forever I will sing of the mercies of the

e|---------------------------------------------------------------------------|
B|-------------------------1--0----------------------------------------------|
G|------0----0---0---2-----------2-----0---------------------2----2--0---0---|
D|--0--------2------------------------------2----0---2--3---------3----------|
A|-----------------------------------------------0----------------3----------|
E|---------------------------------------------------------------------------|

  Lord and with my mouth will I make known thy faithfulness thy faithfulness

e|---------------------------------------------------------------------------|
B|--------------------1--0--------------------------------------0------0-----|
G|-0----0---0---2------------2----0------------0---0------2---------0----2--0|
D|-------------------------------------2----2-------------------0------------|
A|--------------3---------------------------0----------------------------3--2|
E|---------------------------------------------------------------------------|

  and with my mouth will I make known thy faithfulness through all generations



************************************

| /   slide up
| \   slide down
| h   hammer-on
| p   pull-off
| ~   vibrato
| +   harmonic
| x   Mute note
| b   Bend
| pb  Pre-bend
| br  Bend release
| pbr Pre-bend release
| brb Bend release bend

************************************
Добавлено: 18.04.2016
Другие материалы по этой песне:
  • Аккорды и текст

Страница создана 18.04.2016
http://primanota.ru/misc-unsigned-bands/david-son-of-jesse-i-will-sing-of-mercies-chords.htm
Привет, Гость.
Предлагаем пройти революционный курс по гитаре.
Подарок от PrimaNota.Ru, забирай!