PrimaNota.ru - самый крупный в мире бесплатный архив песенных текстов, аккордов, табулатур и нот


Misc Unsigned Bands - Devilskin - Burning Tree - таба

Регистрация Запомнить меня
Войти через:  Facebook Google Twitter Vk Yandex Mail.ru

Misc Unsigned Bands - Devilskin - Burning Tree - таба

Печатать
Просмотров: 47
devilskin.co.nz

-------------------------------------------------------------------------------
                             Burning Tree - Devilskin
-------------------------------------------------------------------------------
Tabbed by:ItsBeanzy

Need some Devilskin tabs on here
This may not be 100% but sounds pretty close and should give you something to work with

Tuning:Drop D



Guitar 1 
e|---------------------------------------------------------------------------|
B|---------------------------------------------------------------------------|
G|---------------------------------------------------------------------------|
D|---------------------------------------------------------------------------|
A|-6p4--------6-----6-4------6p4--------6-----6-4----------------------------|
E|-----4/6----6-----6-4----------4/6----6-----6-4----------------------------|

Guitar 2 
e|------------------4-2-----------------------4-2----------------------------|
B|------------------4-2-----------------------4-2----------------------------|
G|---------------------------------------------------------------------------|
D|---------------------------------------------------------------------------|
A|---------------------------------------------------------------------------|
E|---------------------------------------------------------------------------|


Nothing special but i hope this gets others tabbing the rest of Devilskins amazing songs 

************************************

| /   slide up
| p   pull-off

************************************
Добавлено: 18.04.2016
Другие материалы по этой песне:
  • Аккорды и текст

Страница создана 18.04.2016
http://primanota.ru/misc-unsigned-bands/devilskin-burning-tree-chords.htm
Привет, Гость.
Предлагаем пройти революционный курс по гитаре.
Подарок от PrimaNota.Ru, забирай!