PrimaNota.ru - самый крупный в мире бесплатный архив песенных текстов, аккордов, табулатур и нот


Misc Unsigned Bands - Donell Stephens - Reason - таба

Регистрация Запомнить меня
Войти через:  Facebook Google Twitter Vk Yandex Mail.ru

Misc Unsigned Bands - Donell Stephens - Reason - таба

Печатать
Просмотров: 74
Уроки эстрадного вокала в Санкт-Петербурге
-------------------------------------------------------------------------------
                             October Jam - Donnell Stephens
-------------------------------------------------------------------------------
Tabbed by: Donnell Stephens
E-mail: Astraldjection@gmail.com

Time Signature: 10/8
Original BPM: 97

Tuning: E-Standard (for 6 String Bass) 

Tapping 
C|-13-------------12---------------------------------------------------------|
D|----15p10----------13p10--------------8p10-----------8/10------------------|
D|----------11-------------11-----10h11-----11p8h10-11-----------------------|
A|-------------13--------------13--------------------------------------------|
E|---------------------------------------------------------------------------|
B|---------------------------------------------------------------------------|

C|-13-------------12---------------------------8h10p8------------------------|
G|----15p10----------13p10-------------8p10-----------10-11------------------|
D|----------11--------    11----10h11------11--------------8/9\8-------------|
A|-------------13------------13-----------------------------------11-10------|
E|-----------------------------------------------------------------------11--|
B|---------------------------------------------------------------------------|

C|--------8-10-x-/15^--13----------------------------------------------------|
G|-888-10--------------------/12---------------------------------------------|
D|-------------------------------10------------------------------------------|
A|---------------------------------------------------------------------------|
E|---------------------------------------------------------------------------|
B|---------------------------------------------------------------------------|
 
C|--------8-10-x-/15b----13-----/17-------/15--------------------------------|
G|-888-10---------------------------18-13------------------------------------|
D|---------------------------------------------------------------------------|
A|---------------------------------------------------------------------------|
E|---------------------------------------------------------------------------|
B|---------------------------------------------------------------------------|



************************************

| /   slide up
| \   slide down
| h   hammer-on
| p   pull-off
| ~   vibrato
| +   harmonic
| x   Mute note
| b   Bend
| pb  Pre-bend
| br  Bend release
| pbr Pre-bend release
| brb Bend release bend

************************************
Добавлено: 18.04.2016
Другие материалы по этой песне:
  • Аккорды и текст

Страница создана 18.04.2016
http://primanota.ru/misc-unsigned-bands/donell-stephens-reason-chords.htm
Привет, Гость.
Предлагаем пройти революционный курс по гитаре.
Подарок от PrimaNota.Ru, забирай!