PrimaNota.ru - самый крупный в мире бесплатный архив песенных текстов, аккордов, табулатур и нот


Misc Unsigned Bands - Edd - Begin Again - таба

Регистрация Запомнить меня
Войти через:  Facebook Google Twitter Vk Yandex Mail.ru

Misc Unsigned Bands - Edd - Begin Again - таба

Печатать
Просмотров: 35
-------------------------------------------------------------------------------
                             BEGIN AGAIN - Edd
-------------------------------------------------------------------------------
CAPO 3 

Fret position relative to capo

Tuning: Full step down: dGCFAD

Strumming Pattern: D UDUD 4/4

/=slide up 
\slide down

Intro 

D|------------------------|
A|-15---8---7---5---3-----|
F|------------------------|
C|------------------------|
G|-13---7---5---3---3-----|
d|------------------------|

Verses 
D|---------------------------------------------------------------------------|
A|-3---3---3---5---5---5---7--7---7---8---8---8---15---15---15---15---15---15|
F|-------0-----------0----------0-----------0-------------0--------------0---|
C|---------------------------------------------------------------------------|
G|-3-----------3-----------5----------7-----------13-------------13----------|
d|---------------------------------------------------------------------------|

D|---------------------------------------------------------------------------|
A|-3---3---3---5---5---5---7--7---7---8---8---8---15---15---15---15---15---15|
F|-------0-----------0----------0-----------0-------------0--------------0---|
C|---------------------------------------------------------------------------|
G|-3-----------3-----------5----------7-----------13-------------13----------|
d|---------------------------------------------------------------------------|

D|---------------------------------------------------------------------------|
A|-3---3---3---5---5---5---7--7---7---8---8---8---15---15---15---15---15---15|
F|-------0-----------0----------0-----------0-------------0--------------0---|
C|---------------------------------------------------------------------------|
G|-3-----------3-----------5----------7-----------13-------------13----------|
d|---------------------------------------------------------------------------|

D|---------------------------------------------------------------------------|
A|-3---3---3---5---5---5---7--7---7---8---8---8---15---15---15---15---15---15|
F|-------0-----------0----------0-----------0-------------0--------------0---|
C|---------------------------------------------------------------------------|
G|-3-----------3-----------5----------7-----------13-------------13----------|
d|---------------------------------------------------------------------------|

Pre-chorus Instrumental 
D|---------------------------------------------------------------------------|
A|-3---3---3---5---5---5---7--7---7---8---8---8---15---15---15---16---16---16|
F|-------0-----------0----------0-----------0-------------0--------------0---|
C|---------------------------------------------------------------------------|
G|-3-----------3-----------5----------7-----------13-------------13----------|
d|---------------------------------------------------------------------------|

D|---------------------------------------------------------------------------|
A|-15---15---15---8---7---5---3----------------------------------------------|
F|---------0------------------0----------------------------------------------|
C|----------------------------0----------------------------------------------|
G|-13-------------7---5---3---3----------------------------------------------|
d|---------------------------------------------------------------------------|

Chorus (Strummed)
D|-----------------------------------------------------------------------------------------|
A|-3-3-3-3-3---h5-5-5-5-5---/7-7-7-7-7-7---/8-8-8-8-8---/15-15-15-15-15---15-15-15-15-15---|
F|-0-0-0-0-0----0-0-0-0-0----0-0-0-0-0-0----0-0-0-0-0-----0-0-0-0-0--------0-0-0-0-0-------|
C|-0-0-0-0-0----0-0-0-0-0----0-0-0-0-0-0----0-0-0-0-0-----0-0-0-0-0--------0-0-0-0-0-------|
G|-3-3-3-3-3----3-3-3-3-3---/5-5-5-5-5-5---/7-7-7-7-7---/13-13-13-13-13---13-13-13-13-13---|
d|-----------------------------------------------------------------------------------------|

D|-----------------------------------------------------------------------------------------|
A|-3-3-3-3-3---h5-5-5-5-5---/7-7-7-7-7-7---/8-8-8-8-8---/15-15-15-15-15---15-15-15-15-15---|
F|-0-0-0-0-0----0-0-0-0-0----0-0-0-0-0-0----0-0-0-0-0-----0-0-0-0-0--------0-0-0-0-0-------|
C|-0-0-0-0-0----0-0-0-0-0----0-0-0-0-0-0----0-0-0-0-0-----0-0-0-0-0--------0-0-0-0-0-------|
G|-3-3-3-3-3----3-3-3-3-3---/5-5-5-5-5-5---/7-7-7-7-7---/13-13-13-13-13---13-13-13-13-13---|
d|-----------------------------------------------------------------------------------------|

D|-----------------------------------------------------------------------------------------|
A|-3-3-3-3-3---h5-5-5-5-5---/7-7-7-7-7-7---/8-8-8-8-8---/15-15-15-15-15---15-15-15-15-15---|
F|-0-0-0-0-0----0-0-0-0-0----0-0-0-0-0-0----0-0-0-0-0-----0-0-0-0-0--------0-0-0-0-0-------|
C|-0-0-0-0-0----0-0-0-0-0----0-0-0-0-0-0----0-0-0-0-0-----0-0-0-0-0--------0-0-0-0-0-------|
G|-3-3-3-3-3----3-3-3-3-3---/5-5-5-5-5-5---/7-7-7-7-7---/13-13-13-13-13---13-13-13-13-13---|
d|-----------------------------------------------------------------------------------------|

D|-----------------------------------------------------------------------------------------|
A|-3-3-3-3-3---h5-5-5-5-5---/7-7-7-7-7-7---/8-8-8-8-8---/15-15-15-15-15---15-15-15-15-15---|
F|-0-0-0-0-0----0-0-0-0-0----0-0-0-0-0-0----0-0-0-0-0-----0-0-0-0-0--------0-0-0-0-0-------|
C|-0-0-0-0-0----0-0-0-0-0----0-0-0-0-0-0----0-0-0-0-0-----0-0-0-0-0--------0-0-0-0-0-------|
G|-3-3-3-3-3----3-3-3-3-3---/5-5-5-5-5-5---/7-7-7-7-7---/13-13-13-13-13---13-13-13-13-13---|
d|-----------------------------------------------------------------------------------------|

Instrumental 
D|-----------------------------------------------------------------------------------------|
A|-15-15-15-15---/16-16-16-16-16---/15---\8---7---5---3------------------------------------|
F|--0--0--0--0-----0--0--0--0--0-----0----0---0---0---0------------------------------------|
C|--0--0--0--0-----0--0--0--0--0-----0----0---0---0---0------------------------------------|
G|-13-13-13-13----13-13-13-13-13----13---\7---5---3---3------------------------------------|
d|-----------------------------------------------------------------------------------------|


************************************
Добавлено: 09.04.2016
Другие материалы по этой песне:
  • Аккорды и текст

Страница создана 09.04.2016
http://primanota.ru/misc-unsigned-bands/edd-begin-again-chords.htm
Привет, Гость.
Предлагаем пройти революционный курс по гитаре.
Подарок от PrimaNota.Ru, забирай!