PrimaNota.ru - самый крупный в мире бесплатный архив песенных текстов, аккордов, табулатур и нот


Misc Unsigned Bands - Enej - Radio Hello - таба

Регистрация Запомнить меня
Войти через:  Facebook Google Twitter Vk Yandex Mail.ru

Misc Unsigned Bands - Enej - Radio Hello - таба

Печатать
Просмотров: 100
-------------------------------------------------------------------------------
                             RADIO HELLO - Enej
-------------------------------------------------------------------------------
Tabbed by: PolishWoolf

Tuning: Standard

INTRO
e|--------------------|
B|--------------------|
G|-5-5--8-8--7-7------| X4
D|-5-5--8-8--7-7--5-5-|
A|-3-3--6-6--5-5--5-5-|
E|----------------3-3-|

Trumpet part
e|------------------------------------|
B|------------------------------------|
G|------------------------------------| X4
D|-10----13-10-12-10h12p10-9-12-10----|
A|----10---------------------------10-|
E|------------------------------------|

VERSE
   Dobryj deń witaje tebe radio (antykomercijne)
e|--------------------------------|
B|--------------------------------|
G|-5---------------------7-7------|
D|-5---------------------7-7--5-5-|
A|-3---------------------5-5--5-5-|
E|----------------------------3-3-|

A pohoda bude duże parno (i psychodeliczne)
(Repeat Intro riff 3 times)

I skaży kożen raz koly mene ne ma
e|--------------------|
B|--------------------|
G|--------------------| x4
D|-6-6--5-5--3-3--5-5-|
A|-6-6--5-5--3-3--5-5-|
E|-4-4--3-3--1-1--3-3-|

Pokaży de pryjty de selena woda
Podaruje ti neperespani dni
Dobryj deń mersi, Dobryj deń tobi

e|--------------------|
B|--------------------|
G|--------------------|
D|-6-6-6-6-6-6-6-6--5-|
A|-6-6-6-6-6-6-6-6--5-|
E|-4-4-4-4-4-4-4-4--3-|

CHORUS
Dobryj deń, Dobryj deń,
(Same chords as the intro)

Tu twoje radio Hello, Hello
Dobryj deń, Dobryj deń,
Tu twoje radio Hello, Hello

Repeat intro riff.

VERSE 2
(same as verse 1)
Peredacza druha druha opcija (zowsim ne etyczna)
Na efiri hraje twoja muzyka (monotematyczna)
I skaży kożen raz koly mene ne ma
Pokaży de pryjty de selena woda
Podaruje ti neperespani dni
Dobryj deń mersi, Dobryj deń tobi

CHORUS

Trumpet Solo
e|---------------------------------------------------------|
B|---------------------------------------------------------|
G|-13-13-13-13-15-13-12h13p12-10-12-10-10-10-10------------|
D|----------------------------------------------13-12-10-9-|
A|---------------------------------------------------------|
E|---------------------------------------------------------|

e|-------------------------------------------------------|
B|-------------------------------------------------------|
G|-13-13-13-13-15-13-12h13p12-10-12-10-10-10-10-12-13-12-|
D|-------------------------------------------------------|
A|-------------------------------------------------------|
E|-------------------------------------------------------|

e|----------------------------------------------------|
B|----------------------------------------------------|
G|----------------------------------------------------|
D|-5/6-6-6-6-6-6-6-6/5-5-5-5-5-5-5-5/6-6-6-6-6-6-6--5-|
A|-5/6-6-6-6-6-6-6-6/5-5-5-5-5-5-5-5/6-6-6-6-6-6-6--5-|
E|-3/4-4-4-4-4-4-4-4/3-3-3-3-3-3-3-3/4-4-4-4-4-4-4--3-|

Dobryj deń, Dobryj deń,
Tu twoje radio Hello, Hello
Dobryj deń Dobryj deń,
Tu twoje radio Hello, Hello
(No guitar)

Dobryj deń, Dobryj deń,
Tu twoje radio Hello, Hello (X4)

e|----------------------|
B|----------------------|
G|-7-7--10-10--9-9------| X7
D|-7-7--10-10--9-9--7-7-|
A|-5-5--8--8---7-7--7-7-|
E|------------------5-5-|

e|----------------------|
B|----------------------|
G|-7-7--10-10--10--9--7-|
D|-7-7--10-10--10--9--7-|
A|-5-5--8--8---8---7--5-|
E|----------------------|


************************************

| /   slide up
| \   slide down
| h   hammer-on
| p   pull-off
| ~   vibrato
| +   harmonic
| x   Mute note
| b   Bend
| pb  Pre-bend
| br  Bend release
| pbr Pre-bend release
| brb Bend release bend

************************************
Добавлено: 18.04.2016
Другие материалы по этой песне:
  • Аккорды и текст

Страница создана 18.04.2016
http://primanota.ru/misc-unsigned-bands/enej-radio-hello-chords.htm
Привет, Гость.
Предлагаем пройти революционный курс по гитаре.
Подарок от PrimaNota.Ru, забирай!