PrimaNota.ru - самый крупный в мире бесплатный архив песенных текстов, аккордов, табулатур и нот


Misc Unsigned Bands - City Of Ifa - The God Damn Point - таба, видео

Регистрация Запомнить меня
Войти через:  Facebook Google Twitter Vk Yandex Mail.ru

Misc Unsigned Bands - City Of Ifa - The God Damn Point - таба, видео

Печатать
Просмотров: 51
Уроки эстрадного вокала в Санкт-Петербурге
-------------------------------------------------------------------------------
                             THE GOD DAMN POINT - City of Ifa
-------------------------------------------------------------------------------
Tabbed by: Dallboi
Email: dallboi@hotmail.com

Tuning: EADGBe (Standard)


E  :----------------|----------------|------------------|------------------|
B  :----------------|8--8--8-8-------|--------8-8-8-----|8-8-8-------9-8--8|
G  :----------------|5--5--5-5---*---|--------5-5-5-*---|5-5-5-*-----6-5--5|
D  :----------------|6--6--6-6-------|--------6-6-6-----|6-6-6-------7-6--6|
A  :----------------|----------------|------------------|------------------|
E  :----------------|----------------|------------------|------------------|
 
E  :----------------|----------------|----------------|----------------|
B  :--8-8-----------|------8-4-0-6-0-|8---8-8---------|----------------|
G  :--5-5-----------|5-8-0-----------|5---5-5-*-------|----------------|
D  :--6-6-----5-6-0-|----------------|6---6-6---------|----------------|
A  :----------------|----------------|----------------|----------------|
E  :----------------|----------------|----------------|----------------|
 
E  :----------------|----------------|------------------|----------------|
B  :8--8--8-8-------|--------8-*-----|8-*-------8-8-8---|8-*-----8--8--8-|
G  :5--5--5-5---*---|--------5-------|5---------5-5-5-*-|5-------5--5--5-|
D  :6--6--6-6-------|--------6-------|6---------6-6-6---|6-------6--6--6-|
A  :----------------|----------------|------------------|----------------|
E  :----------------|----------------|------------------|----------------|
 
E  :----------------|----------------|------------------|------------------|
B  :8---------------|8--8--8-8-------|--------8-8-8-----|8-8-8-------9-8-0-|
G  :5---*-----------|5--5--5-5---*---|--------5-5-5-*---|5-5-5-*-----------|
D  :6---------------|6--6--6-6-------|--------6-6-6-----|6-6-6-------------|
A  :----------------|----------------|------------------|------------------|
E  :----------------|----------------|------------------|------------------|
 
E  :----------------|----------------|----------------|----------------|
B  :8---------------|----------------|8--8--8-8-------|--------8-*-----|
G  :5---------------|----------------|5--5--5-5---*---|--------5-------|
D  :6---------------|----------------|6--6--6-6-------|--------6-------|
A  :----------------|----------------|----------------|----------------|
E  :----------------|----------------|----------------|----------------|
 
E  :------------------|----------------|----------------|----------------|
B  :8-*-------8-8-8---|8-*-----8--8--8-|8---------------|8--8--8-8-------|
G  :5---------5-5-5-*-|5-------5--5--5-|5---*-----------|5--5--5-5---*---|
D  :6---------6-6-6---|6-------6--6--6-|6---------------|6--6--6-6-------|
A  :------------------|----------------|----------------|----------------|
E  :------------------|----------------|----------------|----------------|
 
E  :------------------|------------------|----------------|----------------|
B  :--------8-8-8-----|8-8-8-------9-8-0-|8---------------|----------------|
G  :--------5-5-5-*---|5-5-5-*-----------|5---------------|----------------|
D  :--------6-6-6-----|6-6-6-------------|6---------------|----------------|
A  :------------------|------------------|----------------|----------------|
E  :------------------|------------------|----------------|----------------|
 
E  :------------------|----------------|--------10-------|7-------7-------|
B  :(8)---------------|8---------------|8-----------8----|5----------5----|
G  :(5)---------------|5-*-------------|5--------------8-|5-------------5-|
D  :------------------|6---------------|6----------------|7---------------|
A  :------------------|----------------|-----------------|----------------|
E  :------------------|----------------|-----------------|----------------|
 
E  :5---------------|--10-------7-----|--7-------------|5---------------|
B  :---5------8-----|------8----5-----|-----5-------3--|----8-----------|
G  :------7-*-5-----|---------8-5-----|--------5*5-----|--*-5-----------|
D  :----------6-----|-----------7-----|----------------|----6-----------|
A  :----------------|-----------------|----------------|----------------|
E  :----------------|-----------------|----------------|----------------|
 
E  :7---------------|5---------------|----------------|----------------|
B  :5---------------|5---------------|7-7-x-8-8-8-x-7-|x-7-x-8-8-8-x-x-|
G  :5---------------|7---------------|7-7-x-7-7-7-x-7-|x-7-x-7-7-7-x-x-|
D  :7---------------|5---------------|5-5-x-5-5-5-x-5-|x-5-x-5-5-5-x-x-|
A  :----------------|----------------|----------------|----------------|
E  :----------------|----------------|----------------|----------------|
 
E  :----------------|----------------|--------------------|
B  :7-7-x-8-8-8-x-7-|x-7-x-8-8-8-x-x-|5-0-----------------|
G  :7-7-x-7-7-7-x-7-|x-7-x-7-7-7-x-x-|----5-0-------------|
D  :5-5-x-5-5-5-x-5-|x-5-x-5-5-5-x-x-|--------7-5-0-------|
A  :----------------|----------------|--------------7-5-0-|
E  :----------------|----------------|--------------------|
 
E  :--------------------|----------------|----------------|----------------|
B  :5-0-----------------|7-7-x-8-8-8-x-7-|x-7-x-8-8-8-x-x-|7-7-x-8-8-8-x-7-|
G  :----5-0-------------|7-7-x-7-7-7-x-7-|x-7-x-7-7-7-x-x-|7-7-x-7-7-7-x-7-|
D  :--------7-5-0-------|5-5-x-5-5-5-x-5-|x-5-x-5-5-5-x-x-|5-5-x-5-5-5-x-5-|
A  :--------------7-5-0-|----------------|----------------|----------------|
E  :--------------------|----------------|----------------|----------------|
 
E  :----------------|--------------------|--------------------|
B  :x-7-x-8-8-8-x-x-|5-0-----------------|5-0-----------------|
G  :x-7-x-7-7-7-x-x-|----5-0-------------|----5-0-------------|
D  :x-5-x-5-5-5-x-x-|--------7-5-0-------|--------7-5-0-------|
A  :----------------|--------------7-5-0-|--------------7-5-0-|
E  :----------------|--------------------|--------------------|
 
E  :--------------------|--------------------|--------------------|
B  :5-0-----------------|5-0-----------------|7-0-----------------|
G  :----5-0-------------|----5-0-------------|----7-0-------------|
D  :--------7-5-0-------|--------7-5-0-------|--------9-7-0-------|
A  :--------------7-5-0-|--------------7-5-0-|--------------9-7-0-|
E  :--------------------|--------------------|--------------------|
 
E  :--------------------|----------------------|------------------|
B  :7-0-----------------|9-0-------------------|9---10-10---9---9-|
G  :----7-0-------------|----9-0---------------|9----9--9---9---9-|
D  :--------9-7-0-------|--------11-9-0--------|7-*--7--7-*-7-*-7-|
A  :--------------9-7-0-|---------------11-9-0-|------------------|
E  :--------------------|----------------------|------------------|
 
E  :------------------|-----------------|------------------|
B  :--10-10---9-----9-|----9---9-10-----|9---10-10---9---9-|
G  :---9--9---9-----9-|----9---9--9-----|9----9--9---9---9-|
D  :*--7--7-*-7-*---7-|*---7-*-7--7-*---|7-*--7--7-*-7-*-7-|
A  :------------------|-----------------|------------------|
E  :------------------|-----------------|------------------|
 
E  :------------------|------------------|----------------|----------------|
B  :--10-10---9-----9-|----9-10---9-10---|7-7-x-8-8-8-x-7-|x-7-x-8-8-8-x-x-|
G  :---9--9---9-----9-|----9--9---9--9---|7-7-x-7-7-7-x-7-|x-7-x-7-7-7-x-x-|
D  :*--7--7-*-7-*---7-|*---7--7-*-7--7-*-|5-5-x-5-5-5-x-5-|x-5-x-5-5-5-x-x-|
A  :------------------|------------------|----------------|----------------|
E  :------------------|------------------|----------------|----------------|
 
E  :----------------|----------------|--------------------|
B  :7-7-x-8-8-8-x-7-|x-7-x-8-8-8-x-x-|5-0-----------------|
G  :7-7-x-7-7-7-x-7-|x-7-x-7-7-7-x-x-|----5-0-------------|
D  :5-5-x-5-5-5-x-5-|x-5-x-5-5-5-x-x-|--------7-5-0-------|
A  :----------------|----------------|--------------7-5-0-|
E  :----------------|----------------|--------------------|
 
E  :--------------------|----------------|----------------|----------------|
B  :5-0-----------------|7-7-x-8-8-8-x-7-|x-7-x-8-8-8-x-x-|7-7-x-8-8-8-x-7-|
G  :----5-0-------------|7-7-x-7-7-7-x-7-|x-7-x-7-7-7-x-x-|7-7-x-7-7-7-x-7-|
D  :--------7-5-0-------|5-5-x-5-5-5-x-5-|x-5-x-5-5-5-x-x-|5-5-x-5-5-5-x-5-|
A  :--------------7-5-0-|----------------|----------------|----------------|
E  :--------------------|----------------|----------------|----------------|
 
E  :----------------|--------------------|--------------------|
B  :x-7-x-8-8-8-x-x-|5-0-----------------|5-0-----------------|
G  :x-7-x-7-7-7-x-x-|----5-0-------------|----5-0-------------|

D  :x-5-x-5-5-5-x-x-|--------7-5-0-------|--------7-5-0-------|
A  :----------------|--------------7-5-0-|--------------7-5-0-|
E  :----------------|--------------------|--------------------|
 
E  :--------------------|--------------------|--------------------|
B  :5-0-----------------|5-0-----------------|7-0-----------------|
G  :----5-0-------------|----5-0-------------|----7-0-------------|
D  :--------7-5-0-------|--------7-5-0-------|--------9-7-0-------|
A  :--------------7-5-0-|--------------7-5-0-|--------------9-7-0-|
E  :--------------------|--------------------|--------------------|
 
E  :--------------------|----------------------|------------------|
B  :7-0-----------------|9-0-------------------|9---10-10---9---9-|
G  :----7-0-------------|----9-0---------------|9----9--9---9---9-|
D  :--------9-7-0-------|--------11-9-0--------|7-*--7--7-*-7-*-7-|
A  :--------------9-7-0-|---------------11-9-0-|------------------|
E  :--------------------|----------------------|------------------|
 
E  :------------------|-----------------|------------------|
B  :--10-10---9-----9-|----9---9-10-----|9---10-10---9---9-|
G  :---9--9---9-----9-|----9---9--9-----|9----9--9---9---9-|
D  :*--7--7-*-7-*---7-|*---7-*-7--7-*---|7-*--7--7-*-7-*-7-|
A  :------------------|-----------------|------------------|
E  :------------------|-----------------|------------------|
 
E  :------------------|------------------|
B  :--10-10---9-----9-|----9-10---9-10---|
G  :---9--9---9-----9-|----9--9---9--9---|
D  :*--7--7-*-7-*---7-|*---7--7-*-7--7-*-|
A  :------------------|------------------|
E  :------------------|------------------|
 
E  :--------------------------------------|
B  :--------------------------------------|
G  :----5-7-5--------9-11-9----------12-14|
D  :--7-------7---11--------11----14------|
A  :5-----------9--------------12---------|
E  :--------------------------------------|
 
E  :----------------------------------------|
B  :----------------------------------------|
G  :12----------17-19-17--------5-7-5-------|
D  :---14----19----------19---7-------7---11|
A  :------17----------------5-----------9---|
E  :----------------------------------------|
 
E  :--------------------------------------------|-------------------|
B  :--------------------------------------------|-------------------|
G  :9-11-9----------12-14-2----------17-19-17---|5-5-x--9---x-12-12-|
D  :-------11----14---------14----19----------19|7-7-x-11---x-14-14-|
A  :----------12---------------17---------------|5-5-x--9---x-12-12-|
E  :--------------------------------------------|-------------------|
 
E  :----------------------|---------------------|---------------------|
B  :----------------------|---------------------|---------------------|
G  :12-12-17-17-17-17-5-5-|x--9---x-12-12-12-12-|17-17-17-17-5-5-x--9-|
D  :14-14-19-19-19-19-7-7-|x-11---x-14-14-14-14-|19-19-19-19-7-7-x-11-|
A  :12-12-17-17-17-17-5-5-|x--9---x-12-12-12-12-|17-17-17-17-5-5-x--9-|
E  :----------------------|---------------------|---------------------|
 
E  :----------------------|-----------------|-------------------|
B  :----------------------|-----------------|-------------------|
G  :--x-12-12-12-12-17--17|--17-------------|5-5-x--9---x-12-12-|
D  :--x-14-14-14-14-19--19|--19-*-----------|7-7-x-11---x-14-14-|
A  :--x-12-12-12-12-17-*17|-*17-------------|5-5-x--9---x-12-12-|
E  :----------------------|-----------------|-------------------|
 
E  :----------------------|---------------------|
B  :----------------------|---------------------|
G  :12-12-17-17-17-17-5-5-|x--9---x-12-12-12-12-|
D  :14-14-19-19-19-19-7-7-|x-11---x-14-14-14-14-|
A  :12-12-17-17-17-17-5-5-|x--9---x-12-12-12-12-|
E  :----------------------|---------------------|
 
E  :----------------------------|
B  :----------------------------|
G  :17-17-17-17-----5-7-5-------|
D  :19-19-19-19---7-------7---11|
A  :17-17-17-17-5-----------9---|
E  :----------------------------|
 
E  :---------------------------------------------|
B  :---------------------------------------------|
G  :9-11-9----------12-14-12----------17-19-17---|
D  :-------11----14----------14----19----------19|
A  :----------12----------------17---------------|
E  :---------------------------------------------|
 
E  :--------------------------------------|--------------------------------|
B  :--------------------------------------|--------------------------------|
G  :----5-7-5--------9-11-9----------12-14|2----------17-19-17----5-5-x--9-|
D  :--7-------7---11--------11----14------|--14----19----------19-7-7-x-11-|
A  :5-----------9--------------12---------|-----17----------------5-5-x--9-|
E  :--------------------------------------|--------------------------------|
 
E  :----------------------|-------------------|------------------------|
B  :----------------------|-------------------|------------------------|
G  :--x-12-12-12-12-17-17-|17-17-5-5-x--9---x-|12-12-12-12-17-17-17-17-|
D  :--x-14-14-14-14-19-19-|19-19-7-7-x-11---x-|14-14-14-14-19-19-19-19-|
A  :--x-12-12-12-12-17-17-|17-17-5-5-x--9---x-|12-12-12-12-17-17-17-17-|
E  :----------------------|-------------------|------------------------|
 
E  :-------------------|----------------------|---------------------|
B  :-------------------|----------------------|---------------------|
G  :5-5-x--9---x-12-12-|12-12-17-17-17-17-5-5-|x--9---x-12-12-12-12-|
D  :7-7-x-11---x-14-14-|14-14-19-19-19-19-7-7-|x-11---x-14-14-14-14-|
A  :5-5-x--9---x-12-12-|12-12-17-17-17-17-5-5-|x--9---x-12-12-12-12-|
E  :-------------------|----------------------|---------------------|
 
E  :-------------------|----------------|--------------------|
B  :-------------------|----------------|--------------------|
G  :17--17--17---------|----3-----3-----|5-----1-------12----|
D  :19--19--19---------|--5-----5-----7-|----3------14-------|
A  :17-*17-*17---------|----------------|--------------------|
E  :-------------------|3-----3-----5---|--1-----12-------12-|
 
E  :------------------|----------------|--------------------|
B  :------------------|----------------|--------------------|
G  :---12-----7-----5-|----3-----3-----|5-----1-------12----|
D  :14------9-----7---|--5-----5-----7-|----3------14-------|
A  :------------------|----------------|--------------------|
E  :------7-----5-----|3-----3-----5---|--1-----12-------12-|
 
E  :------------------|----------------|--------------------|
B  :------------------|----------------|--------------------|
G  :---12-----7-----5-|----3-----3-----|5-----1-------12----|
D  :14------9-----7---|--5-----5-----7-|----3------14-------|
A  :------------------|----------------|--------------------|
E  :------7-----5-----|3-----3-----5---|--1-----12-------12-|
 
E  :------------------|----------------|--------------------|
B  :------------------|----------------|--------------------|
G  :---12-----7-----5-|----3-----3-----|5-----1-------12----|
D  :14------9-----7---|--5-----5-----7-|----3------14-------|
A  :------------------|----------------|--------------------|
E  :------7-----5-----|3-----3-----5---|--1-----12-------12-|
 
E  :------------------|3----------4----|------3---------|-1----------3---|
B  :------------------|----4----------3|----------4-----|-----3----------|
G  :---12-----7-----5-|--------5-------|---4----------5-|---------4------|
D  :14------9-----7---|----------------|----------------|----------------|
A  :------------------|----------------|----------------|----------------|
E  :------7-----5-----|----------------|----------------|----------------|
 
E  :-------4--------|--3----------1--|--------12--------|
B  :4----------3----|------4---------|-3-----------12---|
G  :----5----------4|----------5-----|-----4------------|
D  :----------------|----------------|------------------|
A  :----------------|----------------|------------------|
E  :----------------|----------------|------------------|
 
E  :---15-----------14---|--------17-----------|12-----------15------|
B  :--------12-----------|12-----------12------|-----12-----------12-|
G  :12-----------12------|-----12-----------12-|----------12---------|
D  :---------------------|---------------------|---------------------|
A  :---------------------|---------------------|---------------------|
E  :---------------------|---------------------|---------------------|
 
E  :-----14-----------17-|------------------|----------------|
B  :----------12---------|--12--------------|----------------|
G  :--12-----------12----|-------12-----3---|--3-----5-----1-|
D  :---------------------|------------5-----|5-----7-----3---|
A  :---------------------|------------------|----------------|
E  :---------------------|----------3-----3-|----5-----1-----|
 
E  :----------------------|----------------|----------------|
B  :----------------------|----------------|----------------|
G  :------12-------12-----|7-----5-----3---|--3-----5-----1-|
D  :---14-------14------9-|----7-----5-----|5-----7-----3---|
A  :----------------------|----------------|----------------|
E  :12-------12-------7---|--5-----3-----3-|----5-----1-----|
 
E  :----------------------|--------14---14-xx|-------------------xx|
B  :----------------------|-------------14-xx|12-12---10---10-10-xx|
G  :------12-------12-----|7-----5-14---14-xx|11-11-*--9----9--9-xx|
D  :---14-------14------9-|----7---12---12-xx|-------------------xx|
A  :----------------------|--------12---12-xx|11-11----9----9--9-xx|
E  :12-------12-------7---|--5-------------xx|-------------------xx|
 
E  :9-9-9-xx14---14-xx|-------------------xx|9-9-9-xx--------|
B  :9-9-9-xx14---14-xx|12-12---10---10-10-xx|9-9-9-xx--------|
G  :9-9-9-xx14---14-xx|11-11-*--9----9--9-xx|9-9-9-xx--------|
D  :7-7-7-xx12---12-xx|-------------------xx|7-7-7-xx--------|
A  :7-7-7-xx12---12-xx|11-11----9----9--9-xx|7-7-7-xx2--2--2-|
E  :------xx--------xx|-------------------xx|------xx1--1--1-|
 
E  :----------------|----------------|----------------|----------------|
B  :----------------|----------------|----------------|----------------|
G  :----------------|----------------|----------------|----------------|
D  :----------------|3--1------------|----------------|3--1------------|
A  :2--2--2-2--2--2-|------2-2--2--2-|2--2--2-2--2--2-|------2-2--2--2-|
E  :1--1--1-1--1--1-|--------1--1--1-|1--1--1-1--1--1-|--------1--1--1-|
 
E  :----------------|----------------|----------------|--------14---14-xx|
B  :----------------|----------------|----------------|--------14---14-xx|
G  :----------------|----------------|----------------|--------14---14-xx|
D  :----------------|3--1------------|----------------|3--1----12---12-xx|
A  :2--2--2-2--2--2-|------2-2--2--2-|2--2--2-2--2--2-|------2-12---12-xx|
E  :1--1--1-1--1--1-|--------1--1--1-|1--1--1-1--1--1-|----------------xx|
 
E  :-------------------xx|9-9-9-xx14---14-xx|-------------------xx|
B  :12-12---10---10-10-xx|9-9-9-xx14---14-xx|12-12---10---10-10-xx|
G  :11-11-*--9----9--9-xx|9-9-9-xx14---14-xx|11-11-*--9----9--9-xx|
D  :-------------------xx|7-7-7-xx12---12-xx|-------------------xx|
A  :11-11----9----9--9-xx|7-7-7-xx12---12-xx|11-11----9----9--9-xx|
E  :-------------------xx|------xx--------xx|-------------------xx|
 
E  :9-9-9-xx14---14-xx|-------------------xx|9-9-9-xx14---14-xx|
B  :9-9-9-xx14---14-xx|12-12---10---10-10-xx|9-9-9-xx14---14-xx|
G  :9-9-9-xx14---14-xx|11-11-*--9----9--9-xx|9-9-9-xx14---14-xx|
D  :7-7-7-xx12---12-xx|-------------------xx|7-7-7-xx12---12-xx|
A  :7-7-7-xx12---12-xx|11-11----9----9--9-xx|7-7-7-xx12---12-xx|
E  :------xx--------xx|-------------------xx|------xx--------xx|
 
E  :-------------------xx|9-9-9-xx14---14-xx|-------------------xx|
B  :12-12---10---10-10-xx|9-9-9-xx14---14-xx|12-12---10---10-10-xx|
G  :11-11-*--9----9--9-xx|9-9-9-xx14---14-xx|11-11-*--9----9--9-xx|
D  :-------------------xx|7-7-7-xx12---12-xx|-------------------xx|
A  :11-11----9----9--9-xx|7-7-7-xx12---12-xx|11-11----9----9--9-xx|
E  :-------------------xx|------xx--------xx|-------------------xx|
 
E  :9-9-9-xx14---14-xx|-------------------xx|9-9-9-xx7-------|
B  :9-9-9-xx14---14-xx|12-12---10---10-10-xx|9-9-9-xx5-------|
G  :9-9-9-xx14---14-xx|11-11-*--9----9--9-xx|9-9-9-xx5-------|
D  :7-7-7-xx12---12-xx|-------------------xx|7-7-7-xx5-------|
A  :7-7-7-xx12---12-xx|11-11----9----9--9-xx|7-7-7-xx--------|
E  :------xx--------xx|-------------------xx|------xx--------|
 
E  :----7-----------|7---------------|--------7-------|----7-----------|
B  :----------5-----|5---------------|--------5-------|----------5-----|
G  :----------------|5-----------5---|--------5-------|----------------|
D  :----------------|5---------------|--5-----5-------|----------------|
A  :----------------|----------------|----------------|----------------|
E  :----------------|----------------|----------------|----------------|
 
E  :7---------------|--------7-------|----7-----------|7---------------|
B  :5---------------|--------5-------|----------5-----|5---------------|
G  :5-----------5---|--------5-------|----------------|5-----------5---|
D  :5---------------|--5-----5-------|----------------|5---------------|
A  :----------------|----------------|----------------|----------------|
E  :----------------|----------------|----------------|----------------|
 
E  :--------7-------|----7-----------|7---------------|--------7-------|
B  :--------5-------|----------5-----|5---------------|--------5-------|
G  :--------5-------|----------------|5-----------5---|--------5-------|
D  :--5-----5-------|----------------|5---------------|--5-----5-------|
A  :----------------|----------------|----------------|----------------|
E  :----------------|----------------|----------------|----------------|
 
E  :----7-----------|7---------------|--------7-------|----7-----------|
B  :----------5-----|5---------------|--------5-------|----------5-----|
G  :----------------|5-----------5---|--------5-------|----------------|
D  :----------------|5---------------|--5-----5-------|----------------|
A  :----------------|----------------|----------------|----------------|
E  :----------------|----------------|----------------|----------------|
 
E  :7---------------|--------7-------|----7-----------|7---------------|
B  :5---------------|--------5-------|----------5-----|5---------------|
G  :5-----------5---|--------5-------|----------------|5-----------5---|
D  :5---------------|--5-----5-------|----------------|5---------------|
A  :----------------|----------------|----------------|----------------|
E  :----------------|----------------|----------------|----------------|
 
E  :--------7-------|----7-----------|7---------------|----------------|
B  :--------5-------|----------5-----|5---------------|----------------|
G  :--------5-------|----------------|5-----------5---|----------------|
D  :--5-----5-------|----------------|5---------------|--5-------------|
A  :----------------|----------------|----------------|----------------|
E  :----------------|----------------|----------------|----------------|
 
E  :11-11-11-11-11-11-11-11-11-------|--11-11-11-11-11-11-------|
B  :12-12-12-12-12-12-12-12-12-------|--12-12-12-12-12-12-------|
G  :-9--9--9--9--9--9--9--9--9-*-----|---9--9--9*-9--9--9*------|
D  :---------------------------------|--------------------------|
A  :---------------------------------|--------------------------|
E  :---------------------------------|--------------------------|
 
E  :11--------11-------|--11-11-11-11-11-11-------|11--------11-11------|
B  :----12----12-------|--12-12-12-12-12-12-------|----12----12-12------|
G  :--------9--9-*-----|---9--9--9*-9--9--9*------|--------9--9--9*-----|
D  :-------------------|--------------------------|---------------------|
A  :-------------------|--------------------------|---------------------|
E  :-------------------|--------------------------|---------------------|
 
E  :--11-11----11-11------|xx11-xx11-11-------|
B  :--12-12----12-12------|xx12-xx12-12-------|
G  :---9--9*----9--9*-----|xx-9-xx-9--9-*-----|
D  :----------------------|xx---xx------------|
A  :----------------------|xx---xx------------|
E  :----------------------|xx---xx------------|
 
E  :----11-11-11-11-11-11-11-----|--11---11-11-11-11-----|
B  :----12-12-12-12-12-12-12-----|--12-*-12-12-12-12-----|
G  :-----9--9--9--9--9--9--9-*---|---9----9--9--9--9*----|
D  :-----------------------------|-----------------------|
A  :-----------------------------|-----------------------|
E  :-----------------------------|-----------------------|
 
E  :11-xxxxxx11--------|--11-11-11-11-11-11-------|11--------11-11------|
B  :12-xxxxxx----12----|--12-12-12-12-12-12-------|----12----12-12------|
G  :-9-xxxxxx--------9-|---9--9--9*-9--9--9*------|--------9--9--9*-----|
D  :---xxxxxx----------|--------------------------|---------------------|
A  :---xxxxxx----------|--------------------------|---------------------|
E  :---xxxxxx----------|--------------------------|---------------------|
 
E  :--11-11----11-11------|xx11-xx11-----11---|
B  :--12-12----12-12------|xx12-xx12-----12---|
G  :---9--9*----9--9*-----|xx-9-xx-9-*----9-*-|
D  :----------------------|xx---xx------------|
A  :----------------------|xx---xx------------|
E  :----------------------|xx---xx------------|
 
E  :11-11-11-11-11-11-11-11---------|--------------------|
B  :12-12-12-12-12-12-12-12---------|--------------------|
G  :-9--9--9--9--9--9--9--9---*-----|--------------------|
D  :------------------------9-------|--9-9-9-9-9-9-------|
A  :------------------------7-------|--7-7-7-7-7-7-------|
E  :------------------------8-------|--8-8-8*8-8-8*------|
 
E  :11----------------|--------------------|11---------------|
B  :----12------------|--------------------|12---------------|
G  :--------9---*-----|--------------------|-9-*-------------|
D  :----------9-------|--9-9-9-9-9-9-------|---------9-------|
A  :----------7-------|--7-7-7-7-7-7-------|---------7-------|
E  :----------8-------|--8-8-8-8-8-8*------|---------8-------|
 
E  :--------------------|11-11--11-11----------|-------------------|
B  :--------------------|12-12--12-12----------|-------------------|
G  :--------------------|-9--9*--9--9*---------|--*----------------|
D  :--9-9-9-9-9-9-9-----|----------------------|9---------9-9-9-9-9|
A  :--7-7-7-7-7-7-7-----|----------------------|7---------7-7-7-7-7|
E  :--8*8-8-8*8-8-8*----|----------------------|8---------8-8-8*8-8|
 
E  :--------11--------|-------------------|--------11-------|
B  :------------12----|-------------------|--------12-------|
G  :----------------9-|--*----------------|---------9-*-----|
D  :9-----------------|9---------9-9-9-9-9|9----------------|
A  :7-----------------|7---------7-7-7-7-7|7----------------|
E  :8*----------------|8---------8-8-8-8-8|8*---------------|
 
E  :------------------|----------11-11--11-11--|10-------10--------|
B  :------------------|----------12-12--12-12--|12-----------12----|
G  :------------------|-----------9--9*--9--9*-|-9---------------9-|
D  :9---------9-9-9-9-|9-9-9-------------------|-------------------|
A  :7---------7-7-7-7-|7-7-7-------------------|-------------------|
E  :8---------8*8-8-8*|8-8-8*------------------|-------------------|
 
E  :7-------7-------|5-------5-------|3---------------5-0-12-0--|
B  :5----------5----|5----------5----|3---------7-8-0-----------|
G  :5-------------5-|7-------------7-|5---5-7-0-----------------|
D  :5---------------|5---------------|3-------------------------|
A  :----------------|----------------|--------------------------|
E  :----------------|----------------|--------------------------|
 
E  :10-------10--------|7-------7-------|5-------5-------|----------------|
B  :12-----------12----|5----------5----|5----------5----|8-----xx8-xx8---|
G  :-9---------------9-|5-------------5-|7-------------7-|5-----xx5-xx5-*-|
D  :-------------------|5---------------|5---------------|6-----xx6-xx6---|
A  :-------------------|----------------|----------------|----------------|
E  :-------------------|----------------|----------------|----------------|
Добавлено: 12.06.2013
Другие материалы по этой песне:
  • Аккорды и текст

Страница создана 12.06.2013
http://primanota.ru/misc-unsigned-bands/city-of-ifa-the-god-damn-point-chords.htm
Привет, Гость.
Предлагаем пройти революционный курс по гитаре.
Подарок от PrimaNota.Ru, забирай!