PrimaNota.ru - самый крупный в мире бесплатный архив песенных текстов, аккордов, табулатур и нот


Misc Unsigned Bands - Chronic Rhythm - Freak Me Out - таба

Регистрация Запомнить меня
Войти через:  Facebook Google Twitter Vk Yandex Mail.ru

Misc Unsigned Bands - Chronic Rhythm - Freak Me Out - таба

Печатать
Просмотров: 43
-------------------------------------------------------------------------------
                             Freak Me Out - Chronic Rhythm
-------------------------------------------------------------------------------

Tuning: Standard

Main Riff:
e|----------------------------|
B|----------------------------|
G|----------------------------|
D|--7-7-44-2-2--7-5-----------|     x2
A|--7-7-44-2-2------7-5-------|
E|--5-5-22-0-0-----------8-5--|

Verse: (Palm-Muted)
e|-----------------------------------------------------------------------------------|
B|-----------------------------------------------------------------------------------|
G|-----------------------------------------------------------------------------------|
D|-----------77777777----------77777777----------77777777----------77777777----------|
A|--77777777-55555555-77777777-55555555-77777777-55555555-77777777-55555555----------|
E|--55555555----------55555555----------55555555----------55555555-------------------|

Pre-Chorus:
e|-----------------------------------------------------------------------------|
B|-----------------------------------------------------------------------------|
G|-----------------------------------------------------------------------------|
D|--7-77-777--4-44-444--2-22-2222-22-222---------------------------------------|
A|--7-77-777--4-44-444--2-22-2222-22-222---------------------------------------|
E|--5-55-555--2-22-222--0-00-0000-00-000---------------------------------------|

e|-----------------------------------------------------------------------------|
B|-----------------------------------------------------------------------------|
G|-----------------------------------------------------------------------------|
D|--7-77-777--4-44-444--2-22-2222-22-222-5555555555555555----------------------|
A|--7-77-777--4-44-444--2-22-2222-22-222-5555555555555555----------------------|
E|--5-55-555--2-22-222--0-00-0000-00-000-3333333333333333----------------------|

Chorus:
e|----------------------------|
B|----------------------------|
G|----------------------------|
D|--7-7-44-2-2--7-5-----------|        x2
A|--7-7-44-2-2------7-5-------|
E|--5-5-22-0-0-----------8-5--|


Lyrics:

(Main Riff)

(Verse)
I want to be with you every day
Oh, yes, girl you are
Just the one for me

(Verse)
I want to be with you every day
Oh, yes, girl won't you
Just hold my hand?

(Pre-Chorus)
I'm standing right next to you
I want to hold your hand
But I'm too scared to
Even open my mouth and ask you out
Baby, you really

(Chorus)
Freak me out
Freak me out

(Verse)
I want to be with you every day
Oh, yes, girl you are
Just the one for me

(Pre-Chorus)
I'm standing right next to you
I want to hold your hand
But I'm too scared to
Even open my mouth and ask you out
Baby, you really

(Chorus x2)
Freak me out
Freak me out
Freak me out
Freak me out

(Pre-Chorus)
I'm standing right next to you
I want to hold your hand
But I'm too scared to
Even open my mouth and ask you out
Baby, you really

(Chorus x2)
Freak me out
Freak me out
Freak me out
Freak me out
Добавлено: 18.10.2013
Другие материалы по этой песне:
  • Аккорды и текст

Страница создана 18.10.2013
http://primanota.ru/misc-unsigned-bands/chronic-rhythm-freak-me-out-chords.htm
Привет, Гость.
Предлагаем пройти революционный курс по гитаре.
Подарок от PrimaNota.Ru, забирай!