PrimaNota.ru - самый крупный в мире бесплатный архив песенных текстов, аккордов, табулатур и нот


Misc Unsigned Bands - Disaster - Believe The Lies - бас-таба, видео

Регистрация Запомнить меня
Войти через:  Facebook Google Twitter Vk Yandex Mail.ru

Misc Unsigned Bands - Disaster - Believe The Lies - бас-таба, видео

Печатать
Просмотров: 118
Уроки эстрадного вокала в Санкт-Петербурге
Disaster - Believe The Lies
Tabbed by: gubugga97@gmail.com
Tuning: Standard 

Intro

G|---------------------------------------------------------------|
D|---------------------------------------------------------------|
A|---------------------------------6-5~--------------------------|
E|-0-0~----0-0~----0-0~----0-0~----------------------------------|

Verse

G|---------------------------------------------------------------|
D|---------------------------------------------------------------|
A|-----6-6-----6-6-----6-6---6-5-3-5-6-5-3-----------------------|
E|-0-0-----0-0-----0-0---------------------3---------------------|

Chorus

G|----------------------l-----------------------------------------|
D|----------------------l-----------------------------------------|
A|-5-5-5-6~----------x3-l-5-5-5-6~-6-5-3-5-6-5-3------------------|
E|----------6-6-6-8~----l------------------------3----------------|

Bridge
G|----------------------------------------------------------------|
D|----------------------------------------------------------------|
A|-------------------------------------------------3-3-3-3-3-3-3-3|
E|-3-3-3-3-3-3-3-3-1-1-1-1-1-1-1-1-0-0-0-0-0-0-0-0----------------|
Добавлено: 21.08.2015
Другие материалы по этой песне:
  • Аккорды и текст

Страница создана 21.08.2015
http://primanota.ru/misc-unsigned-bands/disaster-believe-lies-chords.htm
Привет, Гость.
Предлагаем пройти революционный курс по гитаре.
Подарок от PrimaNota.Ru, забирай!