PrimaNota.ru - самый крупный в мире бесплатный архив песенных текстов, аккордов, табулатур и нот


Misc Unsigned Bands - Chronic Rhythm - Whatcha Gonna Do - бас-таба, видео

Регистрация Запомнить меня
Войти через:  Facebook Google Twitter Vk Yandex Mail.ru

Misc Unsigned Bands - Chronic Rhythm - Whatcha Gonna Do - бас-таба, видео

Печатать
Просмотров: 103
-------------------------------------------------------------------------------
                             SONG NAME - Band Name
-------------------------------------------------------------------------------
Tabbed by:
E-mail:

Tuning:
Verse
G|-----------------------------------------------------------------------------|
D|-----------------------------------------------------------------------------|
A|-4-44-2-22-777-9-99----------------------------------------------------------|
E|-----------------------------------------------------------------------------|
Chorus "I Believe its true"        "Oh No Whatcha Gonna Do?"
G|-----------------------------------------------------------------------------|
D|-----------------------------------------------------------------------------|
A|-7-7-7-77-9-9999-9999------------12-11-11-11-11-9-9-77-4---------------------|
E|-----------------------------------------------------------------------------|
Bridge
G|---------------------------------------------------------------------------|
D|---6----4----9---11-------------------------[6 bars on 11th fret]----------|
A|-44-4-22-2-77-7-9--9--12-12-12-12-12-12-12-12-11-11-11-11------------------|
E|---------------------------------------------------------------------------|
solo
G|---------------------------------------------------------------------------|
D|---------------------------------------------------------------------------|
A|-4444-4444-2222-2222-7777-7777-9999-9999-X2--------------------------------|
E|---------------------------------------------------------------------------|

G|---------------------------------------------------------------------------|
D|---------------------------------------------------------------------------|
A|-4444-4444-7777-7777-9999-9999-12-12-12-12-11-11-11-11-X2------------------|
E|---------------------------------------------------------------------------|

===============================================================================
Song Order:
Intro
Verse
chorus
verse
chorus
bridge
solo
verse
chorus
chorus

Lyrics:
I see the light everytime I look your way
You learn everything from what the man say
Dropped out of school cause you're so cool
the only thing that matters is your bed time rules

Chorus:
I believe it's true
Oh no! Whatcha Gonna Do?

You Walk around like you're in such a daze
make another lie so you can get your way
do what you can so you can get by
everyone loves you cause you're so fly

Chorus

Hey everybody look that way (Hey)
I've gotta gotta run away
Hey Everybody look that way (Hey)
I've Gotta Gotta run away

Chorus X2

Oh no! Oh no! Oh no!
Whatcha Gonna Do?
Добавлено: 21.08.2015
Другие материалы по этой песне:
  • Аккорды и текст

Страница создана 21.08.2015
http://primanota.ru/misc-unsigned-bands/chronic-rhythm-whatcha-gonna-do-chords.htm
Привет, Гость.
Предлагаем пройти революционный курс по гитаре.
Подарок от PrimaNota.Ru, забирай!