PrimaNota.ru - самый крупный в мире бесплатный архив песенных текстов, аккордов, табулатур и нот


Misc Unsigned Bands - Alpharadtv - Science Museum - таба

Регистрация Запомнить меня
Войти через:  Facebook Google Twitter Vk Yandex Mail.ru

Misc Unsigned Bands - Alpharadtv - Science Museum - таба

Печатать
Просмотров: 175
Уроки эстрадного вокала в Санкт-Петербурге
-------------------------------------------------------------------------------
                             Alpharad Television - Science Museum (Where?)
-------------------------------------------------------------------------------
Tabbed by: spiritmint
E-mail: mintyfreshphantom@gmail.com

Tuning: Standard
No Capo
No Signup
No Bullshit

Guitar:
~***~
Pattern A:                        X2                          X2
e|--------------------------------|---------------------------|
B|--------------------------------|---------------------------|
G|--------------------------------|---------------------------|
D|-------10----10---10--12--13----|-------5----5---5--7--8----|
A|--------------------------------|---------------------------|
E|----8------8----8---------------|----3-----3---3------------|

(Notes: Feel free to play Pattern A without distortion, and maybe some Wah-Wah
But fuck, man, idk, you're the one playing it,
Additionally, on the second time playing the second part of this pattern,
slide up from 8 to 10 to continue the pattern.)


Pattern B:                           X2                           X2
e|-----------------------------------|----------------------------|
B|-----------------------------------|----------------------------|
G|-----------------------------------|----------------------------|
D|----10----10-10-10-X-10--12--13----|----5----5-5-5-X-5--7--8----|
A|----10----10-10-10-X-10--12--13----|----5----5-5-5-X-5--7--8----|
E|----8-----8--8--8--X-8---10--11----|----3----3-3-3-X-3--5--6----|

(Notes: This should be played with moderate to strong distortion, along with Pattern A.
It should not over-power the main riff.)


Pattern C:
e|----10-------10/13--11----6--8--10------15--15--------15--15---------------|
B|----------8----------------------------------------------------------------|
G|--------------------------------------12--12--12----12--12--12-------------|
D|---------------------------------------------------------------------------|
A|---------------------------------------------------------------------------|
E|---------------------------------------------------------------------------|

(Notes: This bit plays later in the song as a solo, along with Pattern A)


Pattern D:
e|----15-X-15-15-X-15-X-15-15-X-15-X-X-15-X-15-15-X-15----|
B|----16-X-16-16-X-16-X-16-16-X-16-X-X-15-X-15-15-X-16----|
G|----15-X-15-15-X-15-X-15-15-X-15-X-X-15-X-15-15-X-15----|
D|--------------------------------------------------------|
A|--------------------------------------------------------|
E|--------------------------------------------------------|

e|----13-X-13-13-X-13-X-13-13-X-13-----13-X-13-13-X-13----|
B|----13-X-13-13-X-13-X-13-13-X-13-----13-X-13-13-X-13----|
G|----13-X-13-13-X-13-X-13-13-X-13-----13-X-13-13-X-13----|
D|--------------------------------------------------------|
A|--------------------------------------------------------|
E|--------------------------------------------------------|

(Notes: Pattern D is played later, over Patterns A and B)



ORDER:
(As some have failed to notice, the letters to the left indicate which patterns to play, and when.)
A: (No Vocals)
A: We have to go to the science museum (where) the science museum (where) the science museum (science museum)
A: Oh we have to go to the science museum (where) the science museum (huh) the science museum (science museum)
A: We went to the science museum, and we saw so much science
A: We saw a thing that went up high. And then we saw this thing here.
A: Yeah we did, now look at us, we are having, so much fun (at the-)
(You can start Adding on B here if you are playing w/ multiple people or are recording the different patterns)
A: Science museum (where?) the science museum (huh?) I just said the science museum science museum
A: Science museum (science museum?) science museum (science?). We want to go to the science museum.
(Play pattern C four times here)
C: (No Vocals)
C: (No Vocals)
C: (No Vocals)
C: (No Vocals)
(Along with Pattern A, you can play Pattern D in the background)
A: When we were at the science museum, I walked in the door, and I saw David Paine.
A: I waved at him, but he was cardboard, so I took a picture with-
A: David Paine's cardboard cutout. Yeah, (chuckles). Science... Mu--seum.
A: Science museum (where?) the science museum (huh?) I just said the science museum science museum
A: Science museum (science museum?) science museum (science?). We want to go to the science museum
(Start playing Pattern A alone or w/ Bass very quietly)
A: Science museum (where?) the science museum (huh?) I just said the science museum science museum
A: Science museum (science museum?) science museum (science?). We want to go to the science museum
-----

(Other Notes:
If you want to play bass along with this song, you can play Pattern A on bass, and it sounds good.)

If you want help on timing, just watch the video here:
https://www.youtube.com/watch?v=6-RPltnvfMc

I hope you enjoyed.
Добавлено: 12.10.2015
Другие материалы по этой песне:
  • Аккорды и текст

Страница создана 12.10.2015
http://primanota.ru/misc-unsigned-bands/alpharadtv-science-museum-chords.htm
Привет, Гость.
Предлагаем пройти революционный курс по гитаре.
Подарок от PrimaNota.Ru, забирай!