PrimaNota.ru - самый крупный в мире бесплатный архив песенных текстов, аккордов, табулатур и нот


Misc Unsigned Bands - Alternative Endings Band - Keep It To Yourself The Hip Hop Song - таба

Регистрация Запомнить меня
Войти через:  Facebook Google Twitter Vk Yandex Mail.ru

Misc Unsigned Bands - Alternative Endings Band - Keep It To Yourself The Hip Hop Song - таба

Печатать
Просмотров: 93
-------------------------------------------------------------------------------
      KEEP IT TO YOURSELF (THE HIP HOP SONG) - Alternative Endings Band
-------------------------------------------------------------------------------
Tabbed by:Benjamin P
E-mail:

Tuning:Drop D


Intro-Chorus-Verse 1-Chorus-Verse 2-Breakdown-Chorus-Bridge-Post Bridge-Final Chorus w/ Solo Thing
Guitar 1- Myles
Guitar 2 - Ben


Intro:

Guitar 1                              x3
e|------------------------------------|---------|
B|------------------------------------|---------|
G|-/10--10-10---10--10--10--10--10-10-|--6-6-6--|  
D|------------------------------------|---------|
A|-/8---8--8----8---8---8---8---8--8--|--4-4-4--|
D|------------------------------------|---------|

Guitar 2       
e|-/13--13-13---13--13--13--13--13-13-|--9-9-9--|
B|------------------------------------|---------|
G|-/10--10-10---10--10--10--10--10-10-|--6-6-6--|
D|------------------------------------|---------|
A|------------------------------------|---------|
D|------------------------------------|---------|


Chorus Part:

Guitar 1
e|---------|-------------------------|---------------------|--------------------------|---------------------|
B|---------|-------------------------|---------------------|--------------------------|---------------------|
G|-------8\|-10--10-10-10-10-10-10-10|-10-10-10-10-10-10---|--------------------------|---------------------|
D|---------|-------------------------|---------------------|-11--11-11-11-11-11-11-11-|-11-11-11-11-11-10---|
A|-------6\|-8---8--8--8--8--8--8--8-|-8--8--8--8--8--8----|-11--11-11-11-11-11-11-11-|-11-11-11-11-11-11---|
D|---------|-------------------------|---------------------|-11--11-11-11-11-11-11-11-|-11-11-11-11-11-10---|

Guitar 2
e|---------|-------------------------|---------------------|--------------------------|---------------------|
B|---------|-------------------------|---------------------|--------------------------|---------------------|
G|-13/12---|-13--13-13-13-13-13-13-13|-13-13-13-13-12-13-12|-13--13-13-13-13-13-13-13-|-13-13-13-13-12-13-12|
D|---------|-------------------------|---------------------|--------------------------|---------------------|
A|-11/10---|-11--11-11-11-11-11-11-11|-11-11-11-11-10-11-10|-11--11-11-11-11-11-11-11-|-11-11-11-11-10-11-10|
D|---------|-------------------------|---------------------|--------------------------|---------------------|

Guitar 1
e|-----------------------|----------------------|-------------------------|------|
B|-----------------------|----------------------|-------------------------|------|
G|-----------------------|----------------------|-------------------------|------|
D|--8---8--8--8--8--8--8-|-8--8--8--8--8--8---6-|-6---6-6-6---5--5--5-5-5-|-3----|
A|--8---8--8--8--8--8--8-|-8--8--8--8--8--8---6-|-6---6-6-6---5--5--5-5-5-|-3----|
D|--8---8--8--8--8--8--8-|-8--8--8--8--8--8---6-|-6---6-6-6---5--5--5-5-5-|-3----|

Guitar 2                                         From beg. of Chorus x2, then
e|-----------------------|----------------------|-------------------------|------|
B|-----------------------|----------------------|-------------------------|------|
G|--13--13-13-13-13-13-13|-13-13-13-13-13-15--18|-18--17-15--17/18--17-15-|-13---|
D|-----------------------|----------------------|-------------------------|------| 
A|--11--11-11-11-11-11-11|-11-11-11-11-11-13--16|-16--15-13--15/16--15-13-|-11---|
D|-----------------------|----------------------|-------------------------|------|

Verse 1

Guitar 1                             x3, then                             
e|-------------|--------------------------|------------------------------|----------|
B|-x-x-x-x-----|--------------------------|------------------------------|----------|
G|-x-x-x-x-----|-8/12-10-1010-10-10-10-10-|10/8-6--6-6--6--6--6--6--6-6--|-101010---|
D|-x-x-x-x-----|--------------------------|------------------------------|----------|
A|-x-x-x-x-----|-6/10-8--8-8--8--8--8--8--|-8/6-4--4-4--4--4--4--4--4-4--|-8-8-8----|
D|-------------|--------------------------|------------------------------|----------|

Guitar 2                             x3, then                             
e|-------------|--------------------------|------------------------------|----------|
B|-x-x-x-x-----|--------------------------|------------------------------|----------|
G|-x-x-x-x-----|12/15-13-1313-13-13-13-13-|13/12-10-1010-10-10-10-10-1010|-131313---|
D|-x-x-x-x-----|--------------------------|------------------------------|----------|
A|-x-x-x-x-----|10/13-11-1111-11-11-11-11-|11/10-8--8-8--8--8--8--8--8-8-|-111111---|
D|-------------|--------------------------|------------------------------|----------|


Verse 2

Guitar 1        x3, then                 (with a similar rhythm to before, the notes are...)
e|-------------------|--------------------------|------------------------------------|
B|-------------------|--------------------------|------------------------------------|
G|-10--10--10-10-10--|-10/13-13-13-12--8--8--10-|-10--13-13/12--8--6--13-13-13-------|
D|-------------------|--------------------------|------------------------------------|
A|-8---8---8--8--8---|--8/11-11-11-10--6--6--8--|-8---11-11/10--6--4--11-11-11-------|
D|-------------------|--------------------------|------------------------------------|

Guitar 2
e|---------------|--------------------------------------------------------------|
B|---------------|--------------------------------------------------------------|
G|-13------------|--------------------------------------------------------------|
D|---------------|--------------------------------------------------------------|
A|-11------------|--------------------------------------------------------------|
D|---------------|--------------------------------------------------------------|


Breakdown

Guitar 1
e|----------------------------------------------------------------------------------------------------|
B|-x-x-x--x-x---------------------------------------------------------------------------4-------------|
G|-x-x-x--x-x--------------------------------------3b5b3-------------------------5---5--3-------------|
D|-x-x-x--x-x--3--1--3--6---5------3--1--3--1--1----------3--1--3--6-----5-------6---6--1-------------|
A|-x-x-x--x-x--3--1--3=---8---6----3--1--3----------------3--1--3-----8----6-----3---3--1-------------|
D|-------------3--1--3----------8--3--1--3-------1--------3--1--3------------8---3---3--1-------------|

Guitar 2
e|----------------------------------------------------------------------------------------------------|
B|-x-x-x--x-x-----------------------------------------------------------------------------------4-----|
G|-x-x-x--x-x----------------------------------------------------------------------------5---5--3-----|
D|-x-x-x--x-x--3--1--3--6---5------3--1--3------------------------3--1--3--6-----5-------6---6--1-----|
A|-x-x-x--x-x--3--1--3=---8---6----3--1--3----------13b15b13------3--1--3-----8----6-----3---3--1-----|
D|-------------3--1--3----------8--3--1--3-13-13--1---------------3--1--3------------8---3---3--1-----|


Bridge

Guitar 1
e|---------|------------------------------------------------------------------------------------------|
B|-x-x-x-x-|------------------------------------------------------------------------------------------|
G|-x-x-x-x-|-6-6-6-6-6-6-6-6-6-6-6-6-6-5--------------------------------6-6-6-6-6-6-6-6-6-6-6-6-6-5---|
D|-x-x-x-x-|-6-6-6-6-6-6-6-6-6-6-6-6-6-6--3--3-3-3-3-3-3-3-5-5-5-5-5-6--6-6-6-6-6-6-6-6-6-6-6-6-6-6---|
A|-x-x-x-x-|-4-4-4-4-4-4-4-4-4-4-4-4-4-3--3--3-3-3-3-3-3-3-5-5-5-5-5-6--4-4-4-4-4-4-4-4-4-4-4-4-4-3---|
D|---------|------------------------------3--3-3-3-3-3-3-3-5-5-5-5-5-6--------------------------------|

Guitar 2
e|---------|-9-9-9-9-9-9-9-9-9-9-9-9-9-8--------------------------------9-9-9-9-9-9-9-9-9-9-9-9-9-8---|
B|-x-x-x-x-|------------------------------6--6-6-6-6-6-6-6-8-8-8-8-8-9--------------------------------|
G|-x-x-x-x-|-6-6-6-6-6-6-6-6-6-6-6-6-6-5--------------------------------6-6-6-6-6-6-6-6-6-6-6-6-6-5---|
D|-x-x-x-x-|------------------------------3--3-3-3-3-3-3-3-5-5-5-5-5-6--------------------------------|
A|-x-x-x-x-|------------------------------------------------------------------------------------------|
D|---------|------------------------------------------------------------------------------------------|

Guitar 1
e|------------------------------------------------|
B|------------------------------------------------|
G|--------------------------------------3b5b3-----|
D|--3--1--3--6---5------3--1--3--1--1-------------|   Starting from Bridge, x2, then Post-Bridge
A|--3--1--3=---8---6----3--1--3-------------------|
D|--3--1--3----------8--3--1--3-------1-----------|

Guitar 2
e|------------------------------------------------|
B|------------------------------------------------|
G|------------------------------------------------|
D|--3--1--3--6---5------3--1--3-------------------|
A|--3--1--3=---8---6----3--1--3----------13b15b13-|
D|--3--1--3----------8--3--1--3-13-13--1----------|


Post-Bridge

Guitar 1
e|----------------------------------------------------------------------------------------------|
B|----------------------------------------------------------------------------------------------|
G|----------------------------------------------------------------------------------------------|   x2, then
D|8-10-10-10-10-10-10-10-10-10-10-10-10-10-10-10-8--10-10-10-10-10-10-10-10-10-10-10-10-10-10-10|   Chorus
A|8-10-10-10-10-10-10-10-10-10-10-10-10-10-10-10-8--10-10-10-10-10-10-10-10-10-10-10-10-10-10-10|
D|8-10-10-10-10-10-10-10-10-10-10-10-10-10-10-10-8--10-10-10-10-10-10-10-10-10-10-10-10-10-10-10|

Guitar 2                                         x3, then
e|-20-16-18-16-20-16---------------------------16-|-20-18-16-20-18-16---------------------------|
B|-------------------18---------------------18----|-------------------18------------------------|
G|----------------------17---------------17-------|----------------------17----17---------------|
D|-------------------------18---------18----------|-------------------------18----18------------|
A|---------------------------20-15-20-------------|---------------------------------20-15-------|
D|------------------------------------------------|---------------------------------------------|


Final Chorus Solo Thing

Guitar 2                                         
e|----------------------------------------------------------------------------------------|
B|--------------------------------------9-8--------------------------------------------8-9|
G|--10-10-10-10-10-10-10-10-----------------8-10---10-10-10-10-10-10-10-------------10----|
D|--------------------------10-10-10-10---------------------------------10-10-10-10-------|
A|----------------------------------------------------------------------------------------|
D|----------------------------------------------------------------------------------------|

e|11--11-9-9-8-8-----8-8-9-9-8-8----------------------------------|------|
B|---------------9-9-------------8-9--9-9-9-9-11-9-8--8-8-8-8-8---|------|
G|--------------------------------------------------------------8-|-10---|
D|----------------------------------------------------------------|------|
A|----------------------------------------------------------------|------|
D|----------------------------------------------------------------|------|




************************************

| /   slide up
| \   slide down
| h   hammer-on
| p   pull-off
| ~   vibrato
| +   harmonic
| x   Mute note
| b   Bend
| pb  Pre-bend
| br  Bend release
| pbr Pre-bend release
| brb Bend release bend

************************************
Добавлено: 12.10.2015
Другие материалы по этой песне:
  • Аккорды и текст

Страница создана 12.10.2015
http://primanota.ru/misc-unsigned-bands/alternative-endings-band-keep-it-to-yourself-hip-hop-song-chords.htm
Привет, Гость.
Предлагаем пройти революционный курс по гитаре.
Подарок от PrimaNota.Ru, забирай!