PrimaNota.ru - самый крупный в мире бесплатный архив песенных текстов, аккордов, табулатур и нот


Misc Unsigned Bands - Andrew Cox - In The Garden - таба

Регистрация Запомнить меня
Войти через:  Facebook Google Twitter Vk Yandex Mail.ru

Misc Unsigned Bands - Andrew Cox - In The Garden - таба

Печатать
Просмотров: 75
-------------------------------------------------------------------------------
                            In the Graden
-------------------------------------------------------------------------------
Tabbed by: Andrew Cox
E-mail: andycox3.14.97@gmail.com

Tuning: Standard


e|---0--0--------0--3--5/7--5----3-3----3--5--3--0--3---3/5-------2--3--5----|
B|---------1--3----------------------------------------------3---------------|
G|---------------------------------------------------------------------------|
D|---------------------------------------------------------------------------|
A|---------------------------------------------------------------------------|
E|---------------------------------------------------------------------------|

e|--5--2----0--2--3----5/7----7--5----7--5----3--2----3/5-7----5----3----3-3-|
B|---------------------------------------------------------------------------|
G|---------------------------------------------------------------------------|
D|---------------------------------------------------------------------------|
A|---------------------------------------------------------------------------|
E|---------------------------------------------------------------------------|

e|--2--0--2----2-2--------8----8--8--7--5--7----3--5--7----7-7-8-7-5---------|
B|--------------------3-3----------------------------------------------------|
G|---------------------------------------------------------------------------|
D|---------------------------------------------------------------------------|
A|---------------------------------------------------------------------------|
E|---------------------------------------------------------------------------|

e|--5-5-7-5-3---3-3-5-3-3--0----3--3-----5----3-----|
B|----------------------------3--------7------0-----|
G|--------------------------------------------0-----|
D|--------------------------------------------0-----|
A|--------------------------------------------2-----|
E|--------------------------------------------3-----|



************************************

| /   slide up
| \   slide down
| h   hammer-on
| p   pull-off
| ~   vibrato
| +   harmonic
| x   Mute note
| b   Bend
| pb  Pre-bend
| br  Bend release
| pbr Pre-bend release
| brb Bend release bend

************************************
Добавлено: 08.10.2015
Другие материалы по этой песне:
  • Аккорды и текст

Страница создана 08.10.2015
http://primanota.ru/misc-unsigned-bands/andrew-cox-in-garden-chords.htm
Привет, Гость.
Предлагаем пройти революционный курс по гитаре.
Подарок от PrimaNota.Ru, забирай!